Guitaretab - guitar tabs
Song name
# A B C D E F G H I J K L M N O P Q R S T U V W X Y Z

Maximum Hank - Day After Day tab

Guitar 1:
Verses: After 2nd guitar has done itís part twice, do this 2 times:
e|-------------------------------------------|
B|-------------------------------------------|
G|-9--9-7-9--9-7-9/12--12-14-12-11--11-12-11-|
D|-------------------------------------------|
A|-------------------------------------------|
E|-------------------------------------------|
Do this in every verse. Following that, strum these cords, palm muted: 
E C G D 
|-3-| |-3-| |-3-| |-3-|
|-3-| |-3-| |-3-| |-3-|
|-0-| |-0-| |-0-| |-0-|
|-2-| |-2-| |-0-| |-0-|
|-2-| |-3-| |-2-| |-0-|
|-0-| |-0-| |-3-| |-2-|
Chorus:
  E 		 C 		G 	   D 
|-----------------------------------|
|-----------------------------------|
|-----------------------------------|
|-2-2-2-2--2-2-2-2--0-0-0-0--0-0-0-0|
|-2-2-2-2--3-3-3-3--2-2-2-2--0-0-0-0|
|-0-0-0-0--0-0-0-0--3-3-3-3--2-2-2-2|


Guitar 2: 
Verses: 
e|--------------------------------------------------------|
B|--------------------------------------------------------|
G|--------------------------------------------------------|
D|-----2------2------0------0------2------2------0------0-|
A|---2------3------2------0------2------3------2------0---|
E|-0------0------3------2------0------0------3------2-----|

Chorus:
  E 		 C 		G 	   D 
|-----------------------------------|
|-----------------------------------|
|-----------------------------------|
|-2-2-2-2--2-2-2-2--0-0-0-0--0-0-0-0|
|-2-2-2-2--3-3-3-3--2-2-2-2--0-0-0-0|
|-0-0-0-0--0-0-0-0--3-3-3-3--2-2-2-2|
[ Tab from: http://www.guitaretab.com/m/maximum-hank/120556.html ]
Related for Day After Day tab