Song name
# A B C D E F G H I J K L M N O P Q R S T U V W X Y Z

Maximum The Hormone - Houchou Hasami Cutter Knife Dosu Kiri tab

------------------------------------------------------------------------------------------------
		   Houchou Hasami Cutter Knife Dosu Kiri - Maximum The Hormone
------------------------------------------------------------------------------------------------

tabbed by: gi
email: specialauron@web.de


x = dead note
. = palm mute

mainriff (x2)

e|-------------------|-------------------|
B|-------------------|-------------------|
G|-------------------|-------------------|
D|----2--4--5--5--5--|----2--4-----------|
A|-4--0--2--3--3--3--|-4--0--2---2--2--2-|
E|-2-----------------|-2---------0--0--0-|
                                 .  .  .

verse (x2)

|-------------------|-------------------|
|-------------------|-------------------|
|-------------------|-------------------|
|-------------------|----------2-2-4-4--|
|-4--------4--------|-4--------0-0-2-2--|
|-2--------2--------|-2-----------------|
                               . . . .

verse 2 (x2)

|-----------------|------------------|
|-----------------|------------------|
|-----------------|------------------|
|-----------------|----------2-2-4-4-|
|-4-x-x-x-4-x-x-x-|-4-x-x-x--0-0-2-2-|
|-2-x-x-x-2-x-x-x-|-2-x-x-x----------|

pre chorus

|-------------------|-------------------|-------------------|-------------------|
|-------------------|-------------------|-------------------|-------------------|
|-------------------|-------------------|-------------------|-------------------|
|-x-6-x-6-x-6-x-6-x-|-x-6-x-6-x-6-6-4-4-|-x-6-x-6-x-6-x-6-x-|-x-6-x-6-x-6-6-7-7-|
|-x-4-x-4-x-4-x-4-x-|-x-4-x-4-x-4-4-2-2-|-x-4-x-4-x-4-x-4-x-|-x-4-x-4-x-4-4-5-5-|
|-------------------|-------------------|-------------------|-------------------|

|-------------------|-------------------|-------------------|-------------------|
|-------------------|-------------------|-------------------|-------------------|
|-------------------|-------------------|-------------------|-------------------|
|-x-6-x-6-x-6-x-6-x-|-x-6-x-6-x-6-6-4-4-|-x-6-x-6-x-6-x-6-x-|-x-6-x-6-x-6--7--6-|
|-x-4-x-4-x-4-x-4-x-|-x-4-x-4-x-4-4-2-2-|-x-4-x-4-x-4-x-4-x-|-x-4-x-4-x-4--5--4-|
|-------------------|-------------------|-------------------|-------------------|


chorus

|-----------------|-----------------|-----------------|-----------------|
|-----------------|-----------------|-----------------|-----------------|
|-----------------|-----------------|-----------------|-----------------|
|-----------------|-2-2-x-x-2-2-x-x-|-4-4-x-x-4-4-x-x-|-7-7-x-x-6-6-x-x-|
|-4-4-x-x-4-4-x-x-|-0-0-x-x-0-0-x-x-|-2-2-x-x-2-2-x-x-|-5-5-x-x-4-4-x-x-|
|-2-2-x-x-2-2-x-x-|-----------------|-----------------|-----------------|

|-----------------|-----------------|-----------------|-----------------|
|-----------------|-----------------|-----------------|-----------------|
|-----------------|-----------------|-----------------|-----------------|
|-----------------|-2-2-x-x-2-2-x-x-|-4-4-------------|-7---6-----------|
|-4-4-x-x-4-4-x-x-|-0-0-x-x-0-0-x-x-|-2-2-------------|-5---4---4-------|
|-2-2-x-x-2-2-x-x-|-----------------|-----------------|---------2-------|

mainriff (x2)

verse 1 (x2)

verse 2 (x2)

pre chorus

chorus

bridge 1

|--------------|---------------|---------------|-------------------------|
|--------------|---------------|---------------|-12-12-12-12-12-12-12-12-|
|--------------|---------------|---------------|-12-12-12-12-12-12-12-12-|
|-4--------4-4-|-4---------4-4-|-4-----------4-|-12-12-12-12-12-12-12-12-|
|-4--------4-4-|-4---------4-4-|-4-----------4-|-10-10-10-10-10-10-10-10-|
|-2--------2-2-|-2---------2-2-|-2-----------2-|-------------------------|

bridge 2 (x7)

|-----------------|-----------------|
|-----------------|-----------------|
|-----------2-x-2-|-x-4-x-4-x-7-x-6-|
|-x-4-x-4-x-2-x-2-|-x-4-x-4-x-7-x-6-|
|-x-4-x-4-x-0-x-0-|-x-2-x-2-x-5-x-4-|
|-x-2-x-2-x-------|-----------------|

bridge 2 b

|-----------------|-----------------|
|-----------------|-----------------|
|-----------2-x-2-|-x-4-x-4-x-7-x-7-|
|-x-4-x-4-x-2-x-2-|-x-4-x-4-x-7-x-7-|
|-x-4-x-4-x-0-x-0-|-x-2-x-2-x-5-x-5-|
|-x-2-x-2-x-------|-----------------|


bridge 3

|-----------------|----------------|-------------------|----------------|
|-----------------|----------------|-------------------|----------------|
|-----------------|----------------|-------------------|----------------|
|-6--------6------|-6--------4-4-4-|-6--------6--------|-6--------7-7-7-|
|-4--------4------|-4--------2-2-2-|-4--------4--------|-4--------5-5-5-|
|-----------------|----------------|-------------------|----------------|


pre chorus

bridge 4

|-----------------|-----------------|------------------|-----------------|
|-----------------|-----------------|------------------|-----------------|
|-----------------|-----------------|------------------|-----------------|
|-----------------|-2-2-------2-2-2-|-4-4--------4-4-4-|-7-7----6--------|
|-4-4-------4-4-4-|-0-0-------0-0-0-|-2-2--------2-2-2-|-5-5----4--------|
|-2-2-------2-2-2-|-----------------|------------------|-----------------|
            . . .             . . .              . . .

|-----------------|-----------------|------------------|-----------------|
|-----------------|-----------------|------------------|-----------------|
|-----------------|-----------------|------------------|-----------------|
|-----------------|-2-2-------2-2-2-|-4-4--------4-4-4-|-7-7-7-7-6-6-6-6-|
|-4-4-------4-4-4-|-0-0-------0-0-0-|-2-2--------2-2-2-|-5-5-5-5-4-4-4-4-|
|-2-2-------2-2-2-|-----------------|------------------|-----------------|
            . . .             . . .              . . .


chorus
Tap to rate this tab
# A B C D E F G H I J K L M N O P Q R S T U V W X Y Z