Song name
# A B C D E F G H I J K L M N O P Q R S T U V W X Y Z

Maximum The Hormone - Louisiana Bob tab

-------------------------------------------------------------------------------
		    Lousiana Bob - Maximum the Hormone
-------------------------------------------------------------------------------
Tabbed by: Joe Stierman
Email: jstierman@gmail.com

Tuning: Drop-D (DADGBe)

Notes: Tab isn't perfect, but it'll get you pretty close.

Intro

e|-------------------------| x12
B|-------------------------|
G|-------------------------|
D|-------------------------|
A|-------------------------|
D|-0-0-2-0-0-3-0h2h3-------|
 PM...   ...


Verse

e|-------------------------| x16
B|-------------------------|
G|-------------------------|
D|-------------------------|
A|-0-0-2-0-3-0-2h3---------|
D|-0-0-2-0-3-0-2h3---------|
 PM...........

Note a slight difference in rhythm from intro.


Chorus

e|-------------------------| x2
B|-------------------------|
G|-7-7-7-7-----------------|
D|-7-7-7-7--5-5--7---------|
A|-5-5-5-5--5-5--7---------|
D|----------5-5--7---------|

e|-------------------------------------|
B|-------------------------------------|
G|-7-7-7-7--4-4-4-4------------7-7-7-7-|
D|-7-7-7-7--4-4-4-4--5-5--7-7--7-7-7-7-|
A|-5-5-5-5--2-2-2-2--5-5--7-7--5-5-5-5-|
D|-------------------5-5--7-7----------|

Listen for rhythm


Intro x8

Verse x16

Chorus x1


Post-Chorus

e|--------------------------------------| x2   |---------------|
B|--------------------------------------|      |---------------|
G|--------------------------------------|      |---------------|
D|--------------------------------------|      |---------------|
A|-0---3-0---3-0---3-0---3-0-3-5-3------|      |--3*-3*-3*-3*--|
D|-0---3-0---3-0---3-0---3-0-3-5-3------|      |--3*-3*-3*-3*--|
                                                 NH..........  (or similar)

e|--------------------------------------| x2   |---------------|
B|--------------------------------------|      |---------------|
G|--------------------------------------|      |--5-5-5-5------|
D|--------------------------------------|      |--4-4-4-4------|
A|-0---3-0---3-0---3-0---3-0-3-5-3------|      |--3-3-3-3------|
D|-0---3-0---3-0---3-0---3-0-3-5-3------|      |---------------|
 PM..............................            (some dissident chord like this)



Bass & Drum (same rhythm as next guitar part)


Interlude

e|-------------------------------------| x4
B|-------------------------------------|
G|-------------------------------------|
E|-0--3-0--5-0--3-0--5-0-3-6-5---------|
A|-------------------------------------|
D|-------------------------------------|
 PM.............................


e|-------------------------------------| x12  |-------------|
B|-------------------------------------|      |-------------|
G|-------------------------------------|      |-------------|
D|-------------------------------------|      |-------------|
A|-0--3-0--5-0--3-0--5-0-3-6-5---------|      |--0-3-0-3-0--|
D|-0--3-0--5-0--3-0--5-0-3-6-5---------|      |--0-3-0-3-0--|
 PM.............................


Intro x6

Verse x16

Chorus x2


Ending


e|--------------------| x3  |-------------|
B|--------------------|     |-------------|
G|------------7-7-7-7-|     |-------------|
D|--5-5--7-7--7-7-7-7-|     |--5-5---7-7--|
A| -5-5--7-7--5-5-5-5-|     |--5-5---7-7--|
D|--5-5--7-7----------|     |--5-5---7-7--|



e|------------------------------|
B|------------------------------|
G|-7-7--6-6--5-5--4-4--5-4-5-7--|
D|-7-7--6-6--5-5--4-4--5-4-5-7--|
A|-5-5--4-4--3-3--2-2--3-2-3-5--|
D|------------------------------|


This is my first tab and I'm not really sure how many guitarists out there
want to play these JRock songs, so please drop me an email to let me know
if you used this tab and I will post more.

| /  slide up
| \  slide down
| h  hammer-on
| p  pull-off
| ~  vibrato
| +  harmonic
| x  Mute note
===============================================================================
Tap to rate this tab
# A B C D E F G H I J K L M N O P Q R S T U V W X Y Z