Song name
# A B C D E F G H I J K L M N O P Q R S T U V W X Y Z

Maximum The Hormone - Rokkinpo Goroshi tab

               Rokkinpo Goroshi
               Maximum the Hormone
                       Tuning: I play it drop d, but I think it's probably drop C.
                  I really don't think this is near right, but it's worth a shot.


           Intro
           |----------------------------------------------------------------------|
           |----------------------------------------------------------------------|
           |----------------------------------------------------------------------|
           |---9--7--5--7--5--0--2--0--2--7--5--7--9--7--5--7--5--0--2------------|
           |---9--7--5--7--5--0--2--0--2--7--5--7--9--7--5--7--5--0--2------x2----|
           |----------------------------------------------------------------------|





           Verse
           |----------------------------------------------------------------------|
           |----------------------------------------------------------------------|
           |----------------------------------------------------------------------|
           |--------9-9h7--------------7xx5x9x7xx5x9x7xx5x9x7xx5x9x7xx5x9x7xxxxxxx|
           |---7h9--------7--7h9--X16--7xx5x9x7xx5x9x7xx5x9x7xx5x9x7xx5x9x7xxxxxxx|
           |---------------------------7xx5x9x7xx5x9x7xx5x9x7xx5x9x7xx5x9x7xxxxxxx|



           Bass Break

           Riff
           |---------------------------------------------------------------------|
           |---------------------------------------------------------------------|
           |---------------------------------------------------------------------|
           |----7-5---------------------7777--5-77--99--44-66-9--------5-----7---|
           |--5-----7-5-5-7--5-7----X2--7777--5-77--99--44-66-9--------5-----7---|
           |---------------------5-7----7777--5-77--99--44-66-9-----33-5-333-7-X3|
            Listen to the song, I got tired of the x's, figure those out yourself.



           |---------------------------------------------------------------------|
           |---------------------------------------------------------------------|
           |---------------------------------------------------------------------|
           |-------6--9-7-55---7--9--5--7--3--5--7-----3--5--9-------3--5--7-----|
           |-------6--9-7-55---7--9--5--7--3--5--7-----3--5--9-------3--5--7-----|
           |11111--6--9-7-55---7--9--5--7--3--5--7-X3--3--5--9X3or4--3--5--7-----|



          Repeat everything twice. At the end, do the intro, except the second half
          of the second time, do this.




          |----------------------------------------------------|
          |----------------------------------------------------|
          |----------------------14h16h14h16h14h16h14h16h14h16-|
          |--9-7-9-11-9-14-14----------------------------------|
          |----------------------------------------------------|
          |----------------------------------------------------|

                Enjoy.
Tap to rate this tab
 
# A B C D E F G H I J K L M N O P Q R S T U V W X Y Z