Guitaretab - guitar tabs
Song name
# A B C D E F G H I J K L M N O P Q R S T U V W X Y Z

Maximum The Hormone - Bikini Sports Ponchin tab

hello friend like this tab is to be dedicated to a favorite groups Demis THE MAXIMUM 
is called Bikini. Sports. Ponchin hope you enjoy Christmas and happy = D. Any comments or 
SM want to say something wrong if a contact andres_green_1993@hotmil.com

Tuning(C,G,C,F,A,d)

Intro:

Guitar 1:

------------------------------------------|
------------------------------------------|
------------------------------------------|
------------------------------------------|
-7-8-7-8-7-8-77-88--7-8-7-8-7-8-77-88-----|
-7-8-7-8-7-8-77-88--7-8-7-8-7-8-77-88-----|

Guitar 2:

------------------------------------------|
------------------------------------------|
------------------------------------------|         X2
------------------------------------------|
-11-12-11-12-11-12-1111-1212--------------|
-11-12-11-12-11-12-1111-1212--------------|

Verse:

Guitar 1

------------------------------------------|
------------------------------------------|
------------------------------------------|         x4
--9--11--9--11--9-11----------------------|
-9-9----9-9----9-9----77-88---------------|
----------------------77-88---------------|

Guitar 2:

------------------------------------------|
------------------------------------------|
------------------------------------------|
------------------------------------------|
-77-88------------------------------------|
-77-88------------------------------------|

Guitar 1:

------------------------------------------|
------------------------------------------|
------------------------------------------|        x4
------------------------------------------|
-9-109-109-109-4-7-12---------------------|
-9-109-109-109-4-7-12---------------------|


Guitar 1:

------------------------------------------|
------------------------------------------|
------------------------------------------|          x4
--9--11--9--11--9-11----------------------|
-9-9----9-9----9-9----77-88---------------|
----------------------77-88---------------|

Guitar 2:

------------------------------------------|
------------------------------------------|
------------------------------------------|          x4
------------------------------------------|
-77-77-77-7788-77-77-77-7788--------------|
-77-77-77-7788-77-77-77-7788--------------|

Choir:

(Bikini. Sports. Ponchin,Bikini. Sports. Ponchin, Bikini. Sports. Ponchin...)

Guitar 1:

--------------------------------------------------|
--------------------------------------------------|
--------------------------------------------------|
-7h9-7h9-7h9-12-14--7h9xxxx-7h9xxxx-7h9xxxx-12-14-|
-7h9-7h9-7h9-12-14--7h9xxxx-7h9xxxx-7h9xxxx-12-14-|
-7h9-7h9-7h9-12-14--7h9xxxx-7h9xxxx-7h9xxxx-12-14-|

---------------------------------------------------------|
---------------------------------------------------------|
---------------------------------------------------------|    x2
---------------------------------------------------------|
-7h9xx-9xx9xx9-7h9xx-9xx9xx9-7h9xx-9xx9xx9-1212-1414-----|
-7h9xx-9xx9xx9-7h9xx-9xx9xx9-7h9xx-9xx9xx9-1212-1414-----|

Guitar 2:

-171717171717171717171717171717-14141414-16161616-|
--------------------------------------------------|
--------------------------------------------------|      x2
--------------------------------------------------|
--------------------------------------------------|
--------------------------------------------------|

Guitar 1:


-----------------------------------------------------|
-----------------------------------------------------|
-----------------------------------------------------|    x2
-----------------------------------------------------|
12-9xx9xx9xx9-12-9xx9xx9xx9xx-12-9xx9xx9xx-1212-1414-|
12-9xx9xx9xx9-12-9xx9xx9xx9xx-12-9xx9xx9xx-1212-1414-|

------------------------------------------------------|
------------------------------------------------------|
------------------------------------------------------|
------------------------------------------------------|
12-12-12-12-12-12-12-12-11-11-11-11-------------------|
12-12-12-12-12-12-12-12-11-11-11-11-------------------|

Verse:

Guitar 1
[ Tab from: http://www.guitaretab.com/m/maximum-the-hormone/175898.html ]
------------------------------------------|
------------------------------------------|
------------------------------------------|         x4
--9--11--9--11--9-11----------------------|
-9-9----9-9----9-9----77-88---------------|
----------------------77-88---------------|

Guitar 2:

------------------------------------------|
------------------------------------------|
------------------------------------------|
------------------------------------------|
-77-88------------------------------------|
-77-88------------------------------------|

Guitar 1:

------------------------------------------|
------------------------------------------|
------------------------------------------|        x4
------------------------------------------|
-9-109-109-109-4-7-12---------------------|
-9-109-109-109-4-7-12---------------------|


Guitar 1:

------------------------------------------|
------------------------------------------|
------------------------------------------|          x4
--9--11--9--11--9-11----------------------|
-9-9----9-9----9-9----77-88---------------|
----------------------77-88---------------|

Guitar 2:

------------------------------------------|
------------------------------------------|
------------------------------------------|          x4
------------------------------------------|
-77-77-77-7788-77-77-77-7788--------------|
-77-77-77-7788-77-77-77-7788--------------|

Choir:

(Bikini. Sports. Ponchin,Bikini. Sports. Ponchin, Bikini. Sports. Ponchin...)

Guitar 1:

--------------------------------------------------|
--------------------------------------------------|
--------------------------------------------------|
-7h9-7h9-7h9-12-14--7h9xxxx-7h9xxxx-7h9xxxx-12-14-|
-7h9-7h9-7h9-12-14--7h9xxxx-7h9xxxx-7h9xxxx-12-14-|
-7h9-7h9-7h9-12-14--7h9xxxx-7h9xxxx-7h9xxxx-12-14-|

---------------------------------------------------------|
---------------------------------------------------------|
---------------------------------------------------------|    x2
---------------------------------------------------------|
-7h9xx-9xx9xx9-7h9xx-9xx9xx9-7h9xx-9xx9xx9-1212-1414-----|
-7h9xx-9xx9xx9-7h9xx-9xx9xx9-7h9xx-9xx9xx9-1212-1414-----|

Guitar 2:

-171717171717171717171717171717-14141414-16161616-|
--------------------------------------------------|
--------------------------------------------------|      x2
--------------------------------------------------|
--------------------------------------------------|
--------------------------------------------------|

Guitar 1:


-----------------------------------------------------|
-----------------------------------------------------|
-----------------------------------------------------|    x2
-----------------------------------------------------|
12-9xx9xx9xx9-12-9xx9xx9xx9xx-12-9xx9xx9xx-1212-1414-|
12-9xx9xx9xx9-12-9xx9xx9xx9xx-12-9xx9xx9xx-1212-1414-|

------------------------------------------------------|
------------------------------------------------------|
------------------------------------------------------|
------------------------------------------------------|
12-12-12-12-12-12-12-12-11-11-11-11-------------------|
12-12-12-12-12-12-12-12-11-11-11-11-------------------|

Guitar 1:

------------------------------------------|
------------------------------------------|
------------------------------------------|          x4
--9--11--9--11--9-11----------------------|
-9-9----9-9----9-9----77-88---------------|
----------------------77-88---------------|

------------------------------------------|
------------------------------------------|
------------------------------------------|          x6
--9--11--9--11--9-11----------------------|
-9-9----9-9----9-9----7-7-7---------------|
----------------------7-7-7---------------|

Guitar 2:

------------------------------------------|
------------------------------------------|
------------------------------------------|
------------------------------------------|
-77-88------------------------------------|
-77-88------------------------------------|

End

Guitar 1:

-------------------------------------------|
-------------------------------------------|
-------------------------------------------|
-------------------------------------------|
-7-8-7-8-7-8-77-88--7-8-7-8-7-8-77-88--74/-|
-7-8-7-8-7-8-77-88--7-8-7-8-7-8-77-88--74/-|

Guitar 2:

-------------------------------------------|
-------------------------------------------|
-------------------------------------------|
-------------------------------------------|
-7-8-7-8-7-8-77-88--7-8-7-8-7-8-77-88--74/-|
-7-8-7-8-7-8-77-88--7-8-7-8-7-8-77-88--74/-|
Related for Bikini Sports Ponchin tab
Advertisement will be closed in 10 seconds