Song name
# A B C D E F G H I J K L M N O P Q R S T U V W X Y Z

Maximum The Hormone - Chu Chu Lovely Muni Muni Mura Mura Purin Purin Boron Nururu Rero Rero tab

---------------------------------------------------------------------
|Chu Chu Lovely Munimuni Muramura Purin Purin Boronnururu rero rero |
|Maximum The Hormone                                                |
---------------------------------------------------------------------
Tabbed by: Speeddemo
Email: Heliostheninja@gmail.com

Tuning: Standard! Yay!

This is an awesome song that, for reasons I can't explain, is impossible to find... 
it's the lyrics.... anyway, I made a tab, and here it is:

I've seen this part played in two different ways, so I guess you should pick whichever 
you feel more comfortable with... (or sounds better xp)

Way 1:
e|---------|------------|---------|------------|\
B|---------|------------|---------|------------|\ \
G|-8-8-8-8-|-12--12--12-|-8-8-8-8-|-10-10-10---|\  Played
D|-8-8-8-8-|-12--12--12-|-8-8-8-8-|-10-10-10---|\  4 times
A|-6-6-6-6-|-10--10--10-|-6-6-6-6-|--8--8--8---|\ /
E|---------|------------|---------|------------|\

Way 2: (The one I use *hint hint*)
e|------------|--------------|------------|-------------|\
B|------------|--------------|------------|-------------|\ \
G|-8--8--8--8-|--------------|------------|-------------|\  Played
D|-8--8--8--8-|--10--10--10--|-6--6--6--6-|--8--8--8----|\  4 times
A|-6--6--6--6-|--10--10--10--|-6--6--6--6-|--8--8--8----|\ /
E|------------|---8---8---8--|-4--4--4--4-|--6--6--6----|\

e|-------------|-------------|-------------|--------------|\
B|-------------|-------------|-------------|--------------|\ \
G|-8--x-x-x-x--|-6/--8-x-x-x-|-6/--8-x-x-x-|-8--------9---|\  Played
D|-8--x-x-x-x--|-6/--8-x-x-x-|-6/--8-x-x-x-|-8--6--9--9---|\  2 times
A|-6--x-x-x-x--|-4/--6-x-x-x-|-4/--6-x-x-x-|-6--6--9--7---|\ /
E|-------------|-------------|-------------|----4--7------|\

e|-------------|-------------|-------------|--------------|\
B|-------------|-------------|-------------|--------------|\ \
G|-8-8-8-6-6-6-|-8-8-8-6-6-6-|-8-8-8-6-6-6-|-8-----9--9---|\  Played
D|-8-8-8-6-6-6-|-8-8-8-6-6-6-|-8-8-8-6-6-6-|-8--6--9--9---|\  2 times
A|-6-6-6-4-4-4-|-6-6-6-4-4-4-|-6-6-6-4-4-4-|-6--6--7--7---|\ /
E|-------------|-------------|-------------|----4---------|\

e|-------------|-------------|-------------|
B|-------------|-------------|-------------|
G|-------------|-------------|-------------|
D|-8-----------|-8--8--------|-8--9--11----|
A|-8-----------|-8--8--------|-8--9--11----|
E|-6-----------|-6--6--------|-6--7---9----|

e|-------------|-------------|-------------|
B|-------------|-------------|-------------|
G|-------------|-------------|-------------|
D|-8--8--------|-8--8--------|-8--9--11----|
A|-8--8--------|-8--8--------|-8--9--11----|
E|-6--6--------|-6--6--------|-6--7---9----|

e|------------------|------------------|------------------|----------|\
B|------------------|------------------|------------------|----------|\ \
G|------------------|------------------|------------------|----------|\  Played
D|-8--8-x-x-x-x-x-x-|-8--8-x-x-x-x-x-x-|-8--8-x-x-x-x-x-x-|-8-9-11---|\  2 times
A|-8--8-x-x-x-x-x-x-|-8--8-x-x-x-x-x-x-|-8--8-x-x-x-x-x-x-|-8-9-11---|\ /
E|-6--6-x-x-x-x-x-x-|-6--6-x-x-x-x-x-x-|-8--8-x-x-x-x-x-x-|-6-7--9---|\

e|-----------|-----------|------------|-----------|\
B|-----------|-----------|------------|-----------|\ \
G|-----------|-----------|------------|-----------|\  Played
D|-8-8-9-9-9-|-8-8-9-9-9-|-8--8-9-9-9-|-8--9-11---|\  2 times
A|-8-8-9-9-9-|-8-8-9-9-9-|-8--8-9-9-9-|-8--9-11---|\ /
E|-6-6-7-7-7-|-6-6-7-7-7-|-6--6-7-7-7-|-6--7--9---|\

e|---------|----------|---------|---------|
B|---------|----------|---------|---------|
G|-8-------|----------|---------|---------|
D|-8-------|-10-------|-6-------|-8-------|
A|-6-------|-10-------|-6-------|-8-------|
E|---------|--8-------|-4-------|-6-------|

e|---------|----------|---------|---------|
B|----8----|----------|---------|---------|
G|------8--|-----8----|---5-----|---7-----|
D|---------|-------10-|-----6---|-----8---|
A|-6-------|----------|---------|---------|
E|---------|--8-------|-4-------|-6-------|

The first part again:
e|---------|------------|---------|------------|\
B|---------|------------|---------|------------|\ \
G|-8-8-8-8-|-12--12--12-|-8-8-8-8-|-10-10-10---|\  Played
D|-8-8-8-8-|-12--12--12-|-8-8-8-8-|-10-10-10---|\  2 times
A|-6-6-6-6-|-10--10--10-|-6-6-6-6-|--8--8--8---|\ /
E|---------|------------|---------|------------|\

The first part again:
e|------------|--------------|------------|-------------|\
B|------------|--------------|------------|-------------|\ \
G|-8--8--8--8-|--------------|------------|-------------|\  Played
D|-8--8--8--8-|--10--10--10--|-6--6--6--6-|--8--8--8----|\  2 times
A|-6--6--6--6-|--10--10--10--|-6--6--6--6-|--8--8--8----|\ /
E|------------|---8---8---8--|-4--4--4--4-|--6--6--6----|\


e|-------------|-------------|-------------|--------------|\
B|-------------|-------------|-------------|--------------|\ \
G|-8--x-x-x-x--|-6/--8-x-x-x-|-6/--8-x-x-x-|-8--------9---|\  Played
D|-8--x-x-x-x--|-6/--8-x-x-x-|-6/--8-x-x-x-|-8--6--9--9---|\  2 times
A|-6--x-x-x-x--|-4/--6-x-x-x-|-4/--6-x-x-x-|-6--6--9--7---|\ /
E|-------------|-------------|-------------|----4--7------|\

e|-------------|-------------|-------------|--------------|\
B|-------------|-------------|-------------|--------------|\ \
G|-8-8-8-6-6-6-|-8-8-8-6-6-6-|-8-8-8-6-6-6-|-8-----9--9---|\  Played
D|-8-8-8-6-6-6-|-8-8-8-6-6-6-|-8-8-8-6-6-6-|-8--6--9--9---|\  2 times
A|-6-6-6-4-4-4-|-6-6-6-4-4-4-|-6-6-6-4-4-4-|-6--6--7--7---|\ /
E|-------------|-------------|-------------|----4---------|\

e|-------------|-------------|-------------|
B|-------------|-------------|-------------|
G|-------------|-------------|-------------|
D|-8-----------|-8--8--------|-8--9--11----|
A|-8-----------|-8--8--------|-8--9--11----|
E|-6-----------|-6--6--------|-6--7---9----|

e|------------------|------------------|------------------|----------|\
B|------------------|------------------|------------------|----------|\ \
G|------------------|------------------|------------------|----------|\  Played
D|-8--8-x-x-x-x-x-x-|-8--8-x-x-x-x-x-x-|-8--8-x-x-x-x-x-x-|-8-9-11---|\  2 times
A|-8--8-x-x-x-x-x-x-|-8--8-x-x-x-x-x-x-|-8--8-x-x-x-x-x-x-|-8-9-11---|\ /
E|-6--6-x-x-x-x-x-x-|-6--6-x-x-x-x-x-x-|-6--6-x-x-x-x-x-x-|-6-7--9---|\

e|-----------|-----------|------------|-----------|\
B|-----------|-----------|------------|-----------|\ \
G|-----------|-----------|------------|-----------|\  Played
D|-8-8-9-9-9-|-8-8-9-9-9-|-8--8-9-9-9-|-8--9-11---|\  2 times
A|-8-8-9-9-9-|-8-8-9-9-9-|-8--8-9-9-9-|-8--9-11---|\ /
E|-6-6-7-7-7-|-6-6-7-7-7-|-6--6-7-7-7-|-6--7--9---|\

e|---------|----------|---------|---------|
B|---------|----------|---------|---------|
G|-8-------|----------|---------|---------|
D|-8-------|-10-------|-6-------|-8-------|
A|-6-------|-10-------|-6-------|-8-------|
E|---------|--8-------|-4-------|-6-------|

e|---------|----------|---------|------------|
B|----8----|----------|---------|------------|
G|------8--|-----8----|---5-----|---7-----8*-|
D|---------|-------10-|-----6---|-----8---8*-|
A|-6-------|----------|---------|---------6*-|
E|---------|--8-------|-4-------|-6----------|
                                    *let ring

Solo:

e|-------------------------------------------------------------------------|
B|---------------13-11-13-11-----------------------------------------------|
G|---------12-15-------------12--------------------------------------------|
D|--/13-13-------------------------/13-13----13--15-13-15-13---------------|
A|----------------------------------------15-------------------------------|
E|-------------------------------------------------------------------------|

e|-------------------------------------------------|
B|-------------------------13-13-------------------|
G|-15-15-12-------------12------12-12--------12h15-|
D|----------15-13--13h15--------------15--15-------|
A|-------------------------------------------------|
E|-------------------------------------------------|

e|------11------11------11------11-----11----------11-----13----11------11-----11-|
B|-11h13---11h13---11h13---11h13--13h13-------11h13--11h15--11h13--11h13--11h13---|
G|--------------------------------------------------------------------------------|
D|--------------------------------------------------------------------------------|
A|--------------------------------------------------------------------------------|
E|--------------------------------------------------------------------------------|

e|-fb14-fb14-13-11------11--fb15-fb15-15--------------------------------|
B|-------------------13------------------18-----------------------------|
G|----------------------------------------------------------------------|
D|----------------------------------------------------------------------|
A|----------------------------------------------------------------------|
E|----------------------------------------------------------------------|

e|---------|---------|-----------|
B|---------|---------|-----------|
G|-13---10-|-8----12-|-8--10--12-|
D|-13---10-|-8----12-|-8--10--12-|
A|-11----8-|-6----10-|-6---8--10-|
E|---------|---------|-----------|

e|--------|--------|--------|
B|--------|--------|--------|
G|-17--15-|-12--10-|-8-10-8-|
D|-17--15-|-12--10-|-8-10-8-|
A|-15--13-|-10---8-|-6--8-6-|
E|--------|--------|--------|

(Pick the one you want again) This:
e|---------|------------|---------|------------|\
B|---------|------------|---------|------------|\ \
G|-8-8-8-8-|-12--12--12-|-8-8-8-8-|-10-10-10---|\  Played
D|-8-8-8-8-|-12--12--12-|-8-8-8-8-|-10-10-10---|\  4 times
A|-6-6-6-6-|-10--10--10-|-6-6-6-6-|--8--8--8---|\ /
E|---------|------------|---------|------------|\

Or this:
e|------------|--------------|------------|-------------|\
B|------------|--------------|------------|-------------|\ \
G|-8--8--8--8-|--------------|------------|-------------|\  Played
D|-8--8--8--8-|--10--10--10--|-6--6--6--6-|--8--8--8----|\  4 times
A|-6--6--6--6-|--10--10--10--|-6--6--6--6-|--8--8--8----|\ /
E|------------|---8---8---8--|-4--4--4--4-|--6--6--6----|\

End on:
e|------------|
B|------------|
G|-8----------|
D|-8----------|
A|-6----------|
E|------------|

Wow...that took a few hours (which is more than it sounds like at 2:30 AM) but it was 
it. If there are any questions or comments, please post them in the comment box or email 
at heliostheninja@gmail.com. Thanks, and have fun!

(Lyrics below by the way)


| /  slide up
| \  slide down
| h  hammer-on
| p  pull-off
| ~  vibrato
| +  harmonic
| x  Mute note
===============================================================================

Lyrics:
-English

Chuu chuu lovely muni muni mura mura purin purin boron nururu rero rero
Chuu chuu lovely muni muni mura mura purin purin boron nururu rero rero
Chuu chuu lovely muni muni mura mura purin purin boron nururu rero rero
Chuu chuu lovely muni muni mura mura purin purin boron nururu rero rero

That girl tears off her rock and roll panty hose, and reveals her burning hot body!
The moshing of the stalkers of undeniable tendencies starts right here!

Vinyl, vinyl, vinyl, vinyl, vinyl, vinyl sex!
Aluminum, aluminum, aluminum, aluminum, aluminum (in a way, it's rock)

Bitch you! Get you! A bunch of middle aged phantom killers
The dying hour all year 'round, foreigners taking up permanent residence, amongst reconstruction
Bitch you! Get you! A bunch of middle aged phantom killers
The dying hour all year 'round, foreigners taking up permanent residence, amongst reconstruction

A thin waisted master piece, Este Host Club is immortal
The stress of helping, the stress of responsibilities; Man and woman is an eternal phrase
A justice game? A sex slave can't suppress those desires
In that suticase if a coil of rope, packing tape, and a cutter knife

Chuu chuu lovely muni muni mura mura purin purin boron nururu rero rero
Chuu chuu lovely muni muni mura mura purin purin boron nururu rero rero
Chuu chuu lovely muni muni mura mura purin purin boron nururu rero rero
Chuu chuu lovely muni muni mura mura purin purin boron nururu rero rero

I just want to see you naked! I want to see how you look! It's a life of masturbation, for a guy!
The moshing of the stalkers of undeniable tendencies starts right here!

Vinyl, vinyl, vinyl, vinyl, vinyl, vinyl sex!
Polyester, polyester, polyester, polyester, polyester Soboro

Bitch you! Get you! A bunch of middle aged phantom killers
The dying hour all year 'round, foreigners taking up permanent residence, amongst reconstruction
Bitch you! Get you! A bunch of middle aged phantom killers
The dying hour all year 'round, foreigners taking up permanent residence, amongst reconstruction

A thin waisted master piece, Este Host Club is immortal
The stress of helping, the stress of responsibilities; Man and woman is an eternal phrase
A justice game? A sex slave can't suppress those desires
In that suticase if a coil of rope, packing tape, and a cutter knife

Chuu chuu lovely muni muni mura mura purin purin boron nururu rero rero
Chuu chuu lovely muni muni mura mura purin purin boron nururu rero rero
Chuu chuu lovely muni muni mura mura purin purin boron nururu rero rero
Chuu chuu lovely muni muni mura mura purin purin boron nururu rero rero

A college student would be good, a high school student would be good, a middle school 
would be good
An elementary school student would be good, it would be great if they were tantalizing, 
kindergartener would be good

Chuu chuu lovely muni muni mura mura purin purin boron nururu rero rero
Chuu chuu lovely muni muni mura mura purin purin boron nururu rero rero
Chuu chuu lovely muni muni mura mura purin purin boron nururu rero rero
Chuu chuu lovely muni muni mura mura purin purin boron nururu rero rero

Chuu chuu lovely muni muni mura mura

-Japanese

Chuuchuu lovely munimuni muramura
Purin purin boron nururu rerorero
Chuuchuu lovely munimuni muramura
Purin purin boron nururu rerorero
Chuuchuu lovely munimuni muramura
Purin purin boron nururu rerorero
Chuuchuu lovely munimuni muramura
Purin purin boron nururu rerorero

Ano musume rokkunrooru pan suto hippagashi te burrn!! sukesuke no body
Seiheki iname ne e sutookaa tomodomo mosshu kokkara start ?

Vinyl vinyl vinyl vinyl vinyl vinyl sex
Aluminum aluminum aluminum aluminum aluminum

Bitch you! get you! toorima chuunen ossan renchuu
Nenjuu rinjuu risutora chuu de ga suto eijuu
Bitch you! get you! toorima chuunen ossan renchuu
Nenjuu rinjuu risutora chuu de ga suto eijuu

Uesuto hosomi no masutaa piisu esute. hosuto kurabu fumetsu
Enjo sutoresu otsutome sutoresu yuu to mesu to ha eikyuu no reesu
Jasutisugeemu seiyoku slave osae kire nu yokubou
Sono suutsukeesu ni ha roopu no taba to gamu teepu to kattaanaifu

Chuuchuu lovely munimuni muramura
Purin purin boron nururu rerorero
Chuuchuu lovely munimuni muramura
Purin purin boron nururu rerorero
Chuuchuu lovely munimuni muramura
Purin purin boron nururu rerorero
Chuuchuu lovely munimuni muramura
Purin purin boron nururu rerorero

Hadaka shika mi te e! yousu tashikame te e! musuko shikoshiko life
Seiheki iname ne e sutookaa tomo ? mosshu koko kara start ?

Vinyl vinyl vinyl vinyl vinyl vinyl sex!
Polyester polyester polyester polyester polyester

Bitch you! get you! toorima chuunen ossan renchuu
Nenjuu rinjuu risutora chuu de ga suto eijuu
Bitch you! get you! toorima chuunen ossan renchuu
Nenjuu rinjuu risutora chuu de ga suto eijuu

Uesuto hosomi no masutaa piisu esute. hosuto kurabu fumetsu
Enjo sutoresu otsutome sutoresu yuu to mesu to ha eikyuu no reesu
Jasutisugeemu ? seiyoku slave osae kire nu yokubou
Sono suutsukeesu ni ha roopu no taba to gamu teepu to kattaanaifu

Chuuchuu lovely munimuni muramura
Purin purin boron nururu rerorero
Chuuchuu lovely munimuni muramura
Purin purin boron nururu rerorero
Chuuchuu lovely munimuni muramura
Purin purin boron nururu rerorero
Chuuchuu lovely munimuni muramura
Purin purin boron nururu rerorero

Daigakusei ga ii na koukousei mo ii na chuugakusei mo ii kedo ne
Shougakusei mo ii na toroke sou de ii na youchien ji mo ii kedo

Chuuchuu lovely munimuni muramura
Purin purin boron nururu rerorero
Chuuchuu lovely munimuni muramura
Purin purin boron nururu rerorero
Chuuchuu lovely munimuni muramura
Purin purin boron nururu rerorero
Chuuchuu lovely munimuni muramura
Purin purin boron nururu rerorero

Chuuchuu lovely munimuni muramura

In case you didn't know:

Chuuchu = the sound of sucking
lovely
munimuni = the sound of squeezing something soft
muramura = the sound of being horny
purinpurin = the sound when some scandalize cleavage is showing
boron = the sound when something pops out
nururu = the sound of fingers moving in "wetness"
rerorero = the sound your tongue makes moving around
Tap to rate this tab
# A B C D E F G H I J K L M N O P Q R S T U V W X Y Z