Song name
# A B C D E F G H I J K L M N O P Q R S T U V W X Y Z

Maximum The Hormone - Rolling1000toon tab

AIR MASTER

Song Title  : Rolling1000Toon
Artist      : Maximum The Hormone(Makisimamu the Horumon)
Discription : Air Master 1st Ending Theme

Note        : I don`t know if the Lyrics are really correct..
              I`m not a Japanese Person.. I`m a Filipino.. Hehe
              I can`t clearly figure out
              the timing of the Lyrics on some part of the song
              Mostly on the VERSE: So, just have a Try...

LYRICS:       Romaji Rolling1000toon

INTRO/RIFF:

      Bb5  C#5  G#5 Bb5  C#5  G#5 Bb5 C#5  G#5
e|-------------------------------------------|
B|-------------------------------------------|
G|-------x-6-x-x-------x-6-x-x-------x-6-x-x-|
D|----8--x-x-x-x-6--8--x-x-x-x-6--8--x-x-x-x-|
A|----8----4---x-6--8----4---x-6--8----4---x-|
E|----6----------4--6----------4--6----------|

  G#5 Bb5.......
e|-------------------------|
B|-------------------------|
G|-------------------------|
D|-6--8---8-8--8-----------|
A|-6--8---8-8--8-----------|
E|-4--6---6-6--6-----------|

CHORUS:

    C#5
e|-----------------------------------------|
B|-----------------------------------------|
G|--6--6-6--6---6--6-6---6/8-8--8/10-10----|
D|--6--6-6--6---6--6-6---x-x-x--x-x--x-----|
A|--4--4-4--4---4--4-4---4/6-6--6/8--8-----|
E|-----------------------------------------|

    Ware wa enzui tsuki waru

    C5(C#5-Lead Gtr)
e|-----------------------------------------|
B|-----------------------------------------|
G|--6--6-6--6---6--6-6---6/8-8--8/10-10----|
D|--6--6-6--6---6--6-6---x-x-x--x-x--x-----|
A|--4--4-4--4---4--4-4---4/6-6--6/8--8-----|
E|-----------------------------------------|

    Ware wa enzui tsuki waru

e|------------------------------------------------|
B|--9--11--9------9-------------------------------|
G|------------11-----11--10--8--6-----------------|
D|------------------------------------------------|
A|------------------------------------------------|
E|------------------------------------------------|

    Bb5               G#5         F#5
    Rolling,  rolling enzui tsuki waru

e|------------|
B|------------|
G|-6--8--10---|
D|------------|
A|------------|
E|------------|

   G#5
   Yobe rescue

    C#5
e|-----------------------------------------|
B|-----------------------------------------|
G|--6--6-6--6---6--6-6---6/8-8--8/10-10----|
D|--6--6-6--6---6--6-6---x-x-x--x-x--x-----|
A|--4--4-4--4---4--4-4---4/6-6--6/8--8-----|
E|-----------------------------------------|

    Enzui tsuki waru

    C5
e|-----------------------------------------|
B|-----------------------------------------|
G|--6--6-6--6---6--6-6---6/8-8--8/10-10----|
D|--6--6-6--6---6--6-6---x-x-x--x-x--x-----|
A|--4--4-4--4---4--4-4---4/6-6--6/8--8-----|
E|-----------------------------------------|

    Ware wa enzui tsuki waru

e|------------------------------------------------|
B|--9--11--9------9-------------------------------|
G|------------11-----11--10--8--6-----------------|
D|------------------------------------------------|
A|------------------------------------------------|
E|------------------------------------------------|

   Bb5                G#5         F#5
   Rolling,   rolling enzui tsuki waru

e|-----------|
B|-----------|
G|-6--8--10--|
D|-----------|
A|-----------|
E|-----------|

   G#5
   Hanaji soku break!

RIFF:

      Bb5  C#5  G#5 Bb5  C#5  G#5 Bb5 C#5  G#5
e|-------------------------------------------|
B|-------------------------------------------|
G|-------x-6-x-x-------x-6-x-x-------x-6-x-x-|
D|----8--x-x-x-x-6--8--x-x-x-x-6--8--x-x-x-x-|
A|----8----4---x-6--8----4---x-6--8----4---x-|
E|----6----------4--6----------4--6----------|

  G#5 Bb5.............
e|--------6-6--6-6---6---|
B|--------6-6--6-6---6---|
G|--------6-6--6-6---6---|
D|-6--8------------------|
A|-6--8------------------|
E|-4--6------------------|

          (hebereke da~un)

      Bb5  C#5  G#5 Bb5  C#5  G#5 Bb5 C#5  G#5
e|-------------------------------------------|
B|-------------------------------------------|
G|-------x-6-x-x-------x-6-x-x-------x-6-x-x-|
D|----8--x-x-x-x-6--8--x-x-x-x-6--8--x-x-x-x-|
A|----8----4---x-6--8----4---x-6--8----4---x-|
E|----6----------4--6----------4--6----------|

  G#5 Bb5
e|-------------------|
B|-------------------|
G|-------------------|
D|-6--8--\(Break)----|
A|-6--8--\-----------|
E|-4--6--\-----------|

VERSE:
      Im not sure about the Chords in this PART..
      Just have a try...

     Bb5        G#5   Bb5         Bb5   G#5
e|------------------------------------------------|
B|---9-h11------9-h11-9-h11-------9-h11-9-h11-----|
G|------------------------------------------------|
D|------------------------------------------------|
A|------------------------------------------------|
E|------------------------------------------------|

    Bb5       C#5    G#5
e|------------------------------|
B|--9-h11-----9-11--14--11-9----|
G|------------------------------|
D|------------------------------|
A|------------------------------|
E|------------------------------|

     Bb5        G#5   Bb5         Bb5   G#5
e|------------------------------------------------|
B|---9-h11------9-h11-9-h11-------9-h11-9-h11-----|
G|------------------------------------------------|
D|------------------------------------------------|
A|------------------------------------------------|
E|------------------------------------------------|

    Bb5       C#5    G#5
e|---------------------------|
B|--9-h11-----9-h11----------|
G|-------------------10--8---|
D|---------------------------|
A|---------------------------|
E|---------------------------|

     Bb5        G#5   Bb5         Bb5   G#5
e|------------------------------------------------|
B|---9-h11------9-h11-9-h11-------9-h11-9-h11-----|
G|------------------------------------------------|
D|------------------------------------------------|
A|------------------------------------------------|
E|------------------------------------------------|

    Bb5       C#5    G#5
e|------------------------------|
B|--9-h11-----9-11--14--11-9----|
G|------------------------------|
D|------------------------------|
A|------------------------------|
E|------------------------------|

     Bb5        G#5   Bb5         Bb5   G#5
e|------------------------------------------------|
B|---9-h11------9-h11-9-h11-------9-h11-9-h11-----|
G|------------------------------------------------|
D|------------------------------------------------|
A|------------------------------------------------|
E|------------------------------------------------|

                 B#5
e|-----------------------------|
B|--9-h11-----9-h11--11-11-----|
G|-----------------------------|
D|-----------------------------|
A|-----------------------------|
E|-----------------------------|

VERSE: LYRICS

    Bibou urami norikoe yodooshi nesugosou
    Risou renshou! emono taezu tori
    Trap o kesukou kikenni happyou
    Seme to mamori no revenge banchou
    Elbow abara ni kimetsu ke no kamiwaza
    Lets' go menzai tsuba pepepe
    Disco odotta mikamiban
    Do straight ni lariat wa chouetsu

PRE-CHORUS:

   Bb5
e|----------------------------|
B|----------------------------|
G|-0--15--0-13--0-10---0-13-0-|
D|----------------------------|
A|----------------------------|
E|----------------------------|

   C#5
e|----------------------------|
B|----------------------------|
G|-0--15--0-13--0-10---0-13-0-|
D|----------------------------|
A|----------------------------|
E|----------------------------|
   F#5
e|----------------------------|
B|----------------------------|
G|-0--15--0-13--0-10---0-13-0-|
D|----------------------------|
A|----------------------------|
E|----------------------------|

   G#5
e|----------------------------|
B|----------------------------|
G|-0--15--0-13--0-10---0-13-0-|
D|----------------------------|
A|----------------------------|
E|----------------------------|

   Bb5
e|-----------------------------|
B|-----------------------------|
G|-0-18p15-0--13--0-10--0-13-0-|
D|-----------------------------|
A|-----------------------------|
E|-----------------------------|

   C#5
e|-----------------------------|
B|-----------------------------|
G|-0-18p15-0--13--0-10--0-13-0-|
D|-----------------------------|
A|-----------------------------|
E|-----------------------------|

   F#5
e|-----------------------------|
B|-----------------------------|
G|-0-18p15-0--13--0-10--0-13-0-|
D|-----------------------------|
A|-----------------------------|
E|-----------------------------|

 G#5 Bb5 G#5   G#5    Bb5
e|----------------------------------|
B|----------------------------------|
G|----------------------------------|
D|-6--8--6-6---6-6----8--(Break)----|
A|-6--8--6-6---6-6----8-------------|
E|-4--6--4-4---4-4----6-------------|

PRE-CHORUS: LYRICS

  Bb5
  Skip o hya ppo chuudzuri de

  C#5
  Douki naku tobimawaru

  F#5
  Douki naku tobimawaru

  G#5
  Hidari wa ki hara sukihhara

  Bb5
  Skip o hya ppo chuudzuri de

  C#5
  Douki naku tobimawaru

  F#5
  Douki naku tobimawaru

  G#5-Bb5-G#5-Bb5
  Inabiraki terasu!

REPEAT:
       CHORUS    : for a 2nd time repeated
       RIFF      : 2nd
       VERSE     : 2nd
       PRE-CHORUS: 2nd
       CHORUS    : 3rd time

CHORUS: 2nd
        (You can easily figure it out.. IM LAZY..)

Ware wa enzui tsuki waru
Ware wa enzui tsuki waru
Rolling, rolling enzui tsuki waru
Yobe rescue
Enzui tsuki waru
Ware wa enzui tsuki waru
Rolling, rolling enzui tsuki waru
Hanaji soku break!

RIFF: 2

    (hebereke da~un)

VERSE: 2

Sukesuke no suku-rugi ni basuto yurashi toujyou!
Supirittsu ha ima ni jyoushou kere!
Sora no masuta- toroke dasu nou jyojyo ni ashi ni kuru
Bodi-appa-
Fasuna-ga-do kinteki ni keri kamasu
Kamon! bomb! bomb! bomb!
Chisukou kutta mikka miban
Dosutore-to ni rariatto ha chouetsu

PRE-CHORUS: 2

Skip o hya ppo chuudzuri de
Douki naku tobimawaru
Douki naku tobimawaru
Hidari wa ki hara sukihhara

Skip o hya ppo chuudzuri de
Douki naku tobimawaru
Douki naku tobimawaru

Inabiraki terasu!

BRIDGE:

    This Played by Rythym/Guitar2..
    Guitar 1/Lead.. Just wait..
e|--------------------------------------------------|
B|--------------------------------------------------|
G|--------------------------------------------------|
D|--8--------------------------6--8-----------------|
A|--8--------------------------6--8-----------------|
E|--6--------------------------4--6-----------------|

  Guitar1 Just play Distortion Sensivity..(hisss)..
  .......................................

  Gtr2
e|------------------------------|
B|------------------------------|
G|------------------------------|
D|--6--8------------------------|
A|--6--8------------------------|
E|--4--6------------------------|

  Need another Guitar.. Guitar3 to play this one..
  Gtr3 (Slightly Release the PM)Gtr3 or Gtr1..
   PM------------------------------|PM
e|---------------------------------|
B|---------------------------------|
G|---------------------------------|Repeat
D|---------------------------------|  2x
A|---------------------------------|
E|-6--4---6--4---6---4---6--4------|

  ..............................
  Gtr2
e|------------------------------|
B|------------------------------|
G|------------------------------|
D|--6--8------------------------|
A|--6--8------------------------|
E|--4--6------------------------|

    C#5 Bb5       C#5 Bb5       C#5 Bb5
e|-------------------------------------------------------|
B|-------------------------------------------------------|
G|-------------------------------------------------------|
D|--10--8---x-x---10--8---x-x---10--8--x-x--x-x--x-x-x---|
A|--10--8---x-x---10--8---x-x---10--8--x-x--x-x--x-x-x-x-|
E|--8---6---x-x---8---6---x-x---8---6--x-x-------x-x-x-x-|

    C#5 Bb5       C#5 Bb5       C#5 Bb5
e|-------------------------------------------------------|
B|-------------------------------------------------------|
G|-------------------------------------------------------|
D|--10--8---x-x---10--8---x-x---10--8--x-x--x-x--x-x-x---|
A|--10--8---x-x---10--8---x-x---10--8--x-x--x-x--x-x-x-x-|
E|--8---6---x-x---8---6---x-x---8---6--x-x-------x-x-x-x-|

    C#5 Bb5       C#5 Bb5       C#5 Bb5
e|-------------------------------------------------------|
B|-------------------------------------------------------|
G|-------------------------------------------------------|
D|--10--8---x-x---10--8---x-x---10--8--x-x--x-x--x-x-x---|
A|--10--8---x-x---10--8---x-x---10--8--x-x--x-x--x-x-x-x-|
E|--8---6---x-x---8---6---x-x---8---6--x-x-------x-x-x-x-|

    C#5 Bb5       C#5 Bb5       C#5 Bb5
e|---------------------------------------------------|
B|---------------------------------------------------|
G|---------------------------------------------------|
D|--10--8---------10--8---------10--8----------------|
A|--10--8---------10--8---------10--8----------------|
E|--8---6---------8---6---------8---6----------------|

CHORUS: 4th

    C#5                       C5
e|-------------------------------------------------------|
B|-------------------------------------------------------|
G|-------------------------------------------------------|
D|--11------------------------10-------------------------|
A|--11------------------------10-------------------------|
E|--9-------------------------8--------------------------|

    Bb5          G#5         F#5
e|------------------------------------------------|
B|------------------------------------------------|
G|------------------------------------------------|
D|--8------------6-----------4--------------------|
A|--8------------6-----------4--------------------|
E|--6------------4-----------2--------------------|

   G#5
e|---------------------|
B|---------------------|
G|---------------------|
D|-6---6-6--6----------|
A|-6---6-6--6----------|
E|-4---4-4--4----------|

REPEAT:
       CHORUS: 2x

    Bb5
e|--------------------------------|
B|--------------------------------|
G|--------------------------------|
D|--8-------8-------8-------8-----|
A|--8-------8-------8-------8-----|
E|--6-------6-------6-------6-----|

      Bb5  C#5  G#5 Bb5  C#5  G#5 Bb5 C#5  G#5
e|-------------------------------------------|
B|-------------------------------------------|
G|-------x-6-x-x-------x-6-x-x-------x-6-x-x-|
D|----8--x-x-x-x-6--8--x-x-x-x-6--8--x-x-x-x-|
A|----8----4---x-6--8----4---x-6--8----4---x-|
E|----6----------4--6----------4--6----------|

  G#5 Bb5.......
e|-------------------------|
B|-------------------------|
G|-------------------------|
D|-6--8~-------------------|
A|-6--8~-------------------|
E|-4--6~-------------------|

Tablature Legend:

  h      -- hammer on
  p      -- pull off
  b      -- bend
  r      -- bend release
  ===    -- bend hold or maintain
  ^      -- bend a little, or increase the bend slightly
  <>     -- quick (ring, bend, harmonics etc..)
  /,\    -- slide (toward, forward)
  ~      -- let ring
  x      -- Muted the string then pluck it
  AH     -- Artificial Harmonic
  TP     -- Tap Harmonic
  PH     -- Pitch Harmonic
  NH     -- Natural Harmonic
  PM     -- Palm Muted
  T      -- Tap
  t      -- Use your picking hand to create pull-off's and hammer-on's
  Tr     -- Trill

  Tabbed by      : Nazo Dela Reka
      Email      : nazo_dela_reka@yahoo.com
                   Calinan Davao City, Phillipines...
                   This is to ALL ANIME Fanatics Out there.. Hehe..
                   EnjoYYY...........

         Is there somebody out there that knows where
         to download for free (Full Track)
         Straight from my Heart by Northern Bright
         AM DRIVER 1st Ending Theme. Pls. Tell Me...
Tap to rate this tab
# A B C D E F G H I J K L M N O P Q R S T U V W X Y Z