Song name
# A B C D E F G H I J K L M N O P Q R S T U V W X Y Z

Maximum The Hormone - Tsume Tsume Tsume tab

-------------------------------------------------------------------------------
			     Tsume Tsume Tsume - Maximum The Hormone
-------------------------------------------------------------------------------
Tabbed by: Noah
Email: retarded.spork@gmail.com

Tuning: Drop C

Hey. First tab. Please correct me.

| /  slide up
| \  slide down
| h  hammer-on
| p  pull-off
| ~  let ring
| +  harmonic
| x  palm mute
| tp tremolo pick


D|---------------------------------------------------------------------------|
A|---------------------------------------------------------------------------|
F|--5-5--555--5-5-5-5-6~--5-5-555--5-5-5-5-8~--------------------------------|
C|--4-4--444--4-4-4-4-5~--4-4-444--4-4-4-4-7~--------------------------------|
G|--3-3--333--3-3-3-3-4~--3-3-333--3-3-3-3-6~--------------------------------|
C|---------------------------------------------------------------------------|
         +++                  +++

D|---------------------------------------------------------------------------|
A|---------------------------------------------------------------------------|
F|--5-5--555--5-5-5-5-6~--5-5-555--5-6-5-8~----------------------------------|
C|--4-4--444--4-4-4-4-5~--4-4-444--4-5-4-7~----------------------------------|
G|--3-3--333--3-3-3-3-4~--3-3-333--3-4-3-6~----------------------------------|
C|---------------------------------------------------------------------------|
         +++                  +++  x x x

D|---------------------------------------------------------------------------|
A|---------------------------------------------------------------------------|
F|--5-5--555--5-5-5-5-6~--5-5-555--5-5-5-5-8~--------------------------------|
C|--4-4--444--4-4-4-4-5~--4-4-444--4-4-4-4-7~--------------------------------|
G|--3-3--333--3-3-3-3-4~--3-3-333--3-3-3-3-6~--------------------------------|
C|---------------------------------------------------------------------------|
         +++                  +++

D|---------------------------------------------------------------------------|
A|---------------------------------------------------------------------------|
F|--5-5--555--5-5-5-5-6~--5-5-555---8tp--------------------------------------|
C|--4-4--444--4-4-4-4-5~--4-4-444---7tp--------------------------------------|
G|--3-3--333--3-3-3-3-4~--3-3-333---6tp--------------------------------------|
C|---------------------------------------------------------------------------|
         +++                  +++

D|------------------|
A|------------------|
F|------6-----6-----|  X 12
C|----5---5-----5---|
G|--4-------4-------|
C|------------------|

D|-------------------------------|
A|-------------------------------|
F|---------10----------------10--|  X 12
C|--0-9h10----0--9h10-0h9h10-----|
G|-------------------------------|
C|-------------------------------|

D|-------------------------------|
A|-------------------------------|
F|-------------------------------|  X 4
C|--0~---9-0-10-0~---9-0-10------|
G|-------------------------------|
C|-------------------------------|

D|------------|
A|------------|
F|------------|  X 8
C|--3-4-3-6---|
G|--3-4-3-6---|
C|--3-4-3-6---|
    x x x x

D|------------|
A|------------|
F|------------|  X 4
C|--3-4-3-6---|
G|--3-4-3-6---|
C|--3-4-3-6---|

At this part it gets hard to follow, I'm mostly guessing.

D|---------------------------------------------------------------------------|
A|---------------------------------------------------------------------------|
F|---------------------------------------------------------------------------|
C|--3-3-----5-5-----7~--7-7-7-7-7-7------------------------------------------|
G|--3-3-----5-5-----7~--7-7-7-7-7-7------------------------------------------|
C|--3-3-----5-5-----7~--7-7-7-7-7-7------------------------------------------|
                        x x x x x x

D|---------------------------------------------------------------------------|
A|---------------------------------------------------------------------------|
F|-------------------------------9--------------------------------99999------|
C|----7--------5--------7--------9-9------7--------5--------7-----99999------|
G|----7-7------5-5------7-7----7----------7-7------5-5------7-7---77777------|
C|--7--------5--------7-----------------7--------5--------7------------------|

D|-----------------------------------------|
A|-----------------------------------------|
F|--99999999-------------------9-9---------|
C|--99999999-55555555-77777777-9-9---------|
G|--77777777-55555555-77777777-7-7---------|
C|-----------55555555-77777777-------------|

D|-----------------------------------------|
A|-----------------------------------------|
F|--99999999-------------------99999999----| 
C|--99999999-55555555-77777777-99999999----|
G|--77777777-55555555-77777777-77777777----|
C|-----------55555555-77777777-------------|

D|-----------------------------------------|
A|-----------------------------------------|
F|--9~-----------------99999---------------|
C|--9~----5-5----7~----99999---------------|
G|--7~----5-5----7~----77777---------------|
C|--------5-5----7~------------------------|

D|---------------------------------------------------------------------------|
A|---------------------------------------------------------------------------|
F|--5-5--555--5-5-5-5-6~--5-5-555--5-5-5-5-8~--------------------------------|
C|--4-4--444--4-4-4-4-5~--4-4-444--4-4-4-4-7~--------------------------------|
G|--3-3--333--3-3-3-3-4~--3-3-333--3-3-3-3-6~--------------------------------|
C|---------------------------------------------------------------------------|
         +++                  +++

D|---------------------------------------------------------------------------|
A|---------------------------------------------------------------------------|
F|--5-5--555--5-5-5-5-6~--5-5-555--5-6-5-8~----------------------------------|
C|--4-4--444--4-4-4-4-5~--4-4-444--4-5-4-7~----------------------------------|
G|--3-3--333--3-3-3-3-4~--3-3-333--3-4-3-6~----------------------------------|
C|---------------------------------------------------------------------------|
         +++                  +++  x x x

D|---------------------------------------------------------------------------|
A|---------------------------------------------------------------------------|
F|--5-5--555--5-5-5-5-6~--5-5-555--5-5-5-5-8~--------------------------------|
C|--4-4--444--4-4-4-4-5~--4-4-444--4-4-4-4-7~--------------------------------|
G|--3-3--333--3-3-3-3-4~--3-3-333--3-3-3-3-6~--------------------------------|
C|---------------------------------------------------------------------------|
         +++                  +++

D|---------------------------------------------------------------------------|
A|---------------------------------------------------------------------------|
F|--5-5--555--5-5-5-5-6~--5-5-555---8tp--------------------------------------|
C|--4-4--444--4-4-4-4-5~--4-4-444---7tp--------------------------------------|
G|--3-3--333--3-3-3-3-4~--3-3-333---6tp--------------------------------------|
C|---------------------------------------------------------------------------|
         +++                  +++

D|------------------|
A|------------------|
F|------6-----6-----|  X 12
C|----5---5-----5---|
G|--4-------4-------|
C|------------------|

D|-------------------------------|
A|-------------------------------|
F|---------10----------------10--|  X 12
C|--0-9h10----0--9h10-0h9h10-----|
G|-------------------------------|
C|-------------------------------|

D|-------------------------------|
A|-------------------------------|
F|-------------------------------|  X 4
C|--0~---9-0-10-0~---9-0-10------|
G|-------------------------------|
C|-------------------------------|

D|------------|
A|------------|
F|------------|  X 8
C|--3-4-3-6---|
G|--3-4-3-6---|
C|--3-4-3-6---|
    x x x x

D|------------|
A|------------|
F|------------|  X 4
C|--3-4-3-6---|
G|--3-4-3-6---|
C|--3-4-3-6---|

At this part it gets hard to follow, I'm mostly guessing.

D|---------------------------------------------------------------------------|
A|---------------------------------------------------------------------------|
F|---------------------------------------------------------------------------|
C|--3-3-----5-5-----7~--7-7-7-7-7-7------------------------------------------|
G|--3-3-----5-5-----7~--7-7-7-7-7-7------------------------------------------|
C|--3-3-----5-5-----7~--7-7-7-7-7-7------------------------------------------|
                        x x x x x x

D|---------------------------------------------------------------------------|
A|---------------------------------------------------------------------------|
F|-------------------------------9--------------------------------99999------|
C|----7--------5--------7--------9-9------7--------5--------7-----99999------|
G|----7-7------5-5------7-7----7----------7-7------5-5------7-7---77777------|
C|--7--------5--------7-----------------7--------5--------7------------------|

D|-----------------------------------------|
A|-----------------------------------------|
F|--99999999-------------------9-9---------|
C|--99999999-55555555-77777777-9-9---------|
G|--77777777-55555555-77777777-7-7---------|
C|-----------55555555-77777777-------------|

D|-----------------------------------------|
A|-----------------------------------------|
F|--99999999-------------------99999999----| 
C|--99999999-55555555-77777777-99999999----|
G|--77777777-55555555-77777777-77777777----|
C|-----------55555555-77777777-------------|

D|-----------------------------------------|
A|-----------------------------------------|
F|--9~-----------------99999---------------|
C|--9~----5-5----7~----99999---------------|
G|--7~----5-5----7~----77777---------------|
C|--------5-5----7~------------------------|

Then repeat all that stuff again.

Then the chord after the weird laughing part is:

D|----------|
A|----------|
F|------17--|
C|----16----|
G|--15------|
C|----------|

Then the bridge is just a bunch of these:

D|----------|
A|----------|
F|----------|
C|--3-4-----|
G|--3-4-----|
C|--3-4-----|
    x x
Tap to rate this tab
# A B C D E F G H I J K L M N O P Q R S T U V W X Y Z