Song name
# A B C D E F G H I J K L M N O P Q R S T U V W X Y Z

Maximum The Hormone - Kill All The 394 tab

-------------------------------------------------------------------------------
			     Kill all the 394 - Maximum The Hormone (マキシマム ザ ホルモン)
-------------------------------------------------------------------------------
Tabbed by: Gii
Email: specialauron@web.de



E|---|
B|---|
G|---|
D|-4-|
A|-2-|
E|---| x4

-
E|-----------------|
B|-----------------|
G|-----------------|
D|-4-4---------3-3-|
A|-2-2-5-5-4-4-1-1-|
E|-----3-3-2-2-----| x8

-
E|---------------------------------|
B|---------------------------------|
G|---------------------------------|
D|-------------------------2-2-3-3-|
A|-4-4-4-4-4-4-4-4-4-4-4-4-0-0-1-1-|
E|-2-2-2-2-2-2-2-2-2-2-2-2---------| x4
   .   .   .   .   .   .


E|-----------------|	E|-----------|
B|-----------------|	B|-----------|
G|-----------------|	G|-----------|
D|-4-4-----2-2-3-3-|	D|-4-4-------|
A|-2-2-5-5-0-0-1-1-|	A|-2-2-5-5-4-|
E|-----3-3---------|3x	E|-----3-3-2-| x1                    x2



E|-------------|	 E|-----------------|     |-----|
B|-------------|	 B|-----------------|     |-----|
G|-------------|	 G|-----------------|     |-----|
D|-4--------3--|	 D|-4-4---------3-3-|     |-4-4-|
A|-2--5--4--1--|	 A|-2-2-5-5-4-4-1-1-|     |-2-2-|
E|----3--2-----| x8	 E|-----3-3-2-2-----| x8  |-----| x1



E|---------|-------------|
B|---------|-------------|
G|-4-4-----|-------------|
D|-4-4-----|-2-2-----4-4-|
A|-2-2-----|-2-2-4-4-2-2-|
E|---------|-0-0-2-2-----| x1
             . . . .


E|-------------------------------------|---------------------------------|
B|-------------------------------------|---------------------------------|
G|-4-4-4-4---------4-4-----4-4-4-4-4-4-|-4-4-4-4-------------------------|
D|-4-4-4-4-2-2-2-2-4-4-----4-4-4-4-4-4-|-4-4-4-4-4-4-4-4-2-2-2-2-4-4-4-4-|
A|-2-2-2-2-2-2-2-2-2-2-4-4-2-2-2-2-2-2-|-2-2-2-2-4-4-4-4-2-2-2-2-4-4-4-4-|
E|---------0-0-0-0-----2-2-------------|---------2-2-2-2-0-0-0-0-2-2-2-2-|



E|-----------------|---------------------------|
B|-----------------|---------------------------|
G|-4-4-4-4---------|---------------------------|
D|-4-4-4-4-2-2-2-2-|-4-4---------4-4-4-4-4~~~4-|
A|-2-2-2-2-2-2-2-2-|-2-2--4-4----2-2-2-2-2~~~2-|
E|---------0-0-0-0-|------2-2------------------|




(Lindberg - Believe In Love Intro)
Tap to rate this tab
 
# A B C D E F G H I J K L M N O P Q R S T U V W X Y Z