Song name
# A B C D E F G H I J K L M N O P Q R S T U V W X Y Z

Maximum The Hormone - Nitro Bb Sensou tab

Song: Nitro BB Sensou
Artist: Maximum The Hormone
Album: Rokkinpo Goroshi 
Tuning:(C,G,C,F,A,D)
Tabber: Mosher666

This tab sounds about right :) anything you thinks wrong, just say and ill try it 
out and change it if needed :)

Key
. = Palm mute


Intro

D|------------------------------------------------------------------------|
A|------------------------------------------------------------------------|
F|------------------------------------------------------------------------|
C|-12--12-12-12-12-12-12-9--9-9-9-9-9-5--5-5-7--7-7-12--12-12-12-12-12-12-|
G|-12--12-12-12-12-12-12-9--9-9-9-9-9-5--5-5-7--7-7-12--12-12-12-12-12-12-|
C|-12--12-12-12-12-12-12-9--9-9-9-9-9-5--5-5-7--7-7-12--12-12-12-12-12-12-|

 X2
   Verse 1 (part 1)
D|------------------------------------------------------------------------------------------|
A|------------------------------------------------------------------------------------------|
F|------------------------------------------------------------------------------------------|
C|-------12-------12-----7-----7-----5-----5-----7-------12-----7--5--7--12-12-12-12-12-----|
G|-------12-------12-----7-----7-----5-----5-----7-------12-----7--5--7--12-12-12-12-12-----|
C|-12-12-12-12-12-12-7-7-7-7-7-7-5-5-5-5-5-5-7-7-7-12-12-12-7-7-7--5--7--12-12-12-12-12-----|
    . .     .  .     . .   . .   . .   . .   . .    .  .    . .

Verse 1 (part 2)(there's no palm mutes)
D|-----------------------------------------------------------------------------------|
A|-----------------------------------------------------------------------------------|
F|-----------------------------------------------------------------------------------|
C|-------12-------12-----7-----7-----5-----5-----7-------12-----7------5-----7-------|
G|-------12-------12-----7-----7-----5-----5-----7-------12-----7------5-----7-------|
C|-12-12-12-12-12-12-7-7-7-7-7-7-5-5-5-5-5-5-7-7-7-12-12-12-7-7-7--5-5-5-7-7-7-------|


Pre Chorus

D|--------------------------------------|
A|--------------------------------------|
F|--------------------------------------|   X2
C|-9-9---9-9---9-9---9-10-10-10---------|     
G|-9-9---9-9---9-9---9-10-10-10---------|
C|-9-9---9-9---9-9---9-10-10-10---------|

D|-------------------------------|
A|-------------------------------|
F|-------------------------------|   X2
C|-9-9--9-9--9-9-9-9-7-7---------|     
G|-9-9--9-9--9-9-9-9-7-7---------|
C|-9-9--9-9--9-9-9-9-7-7---------|

Chorus

D|-------------------------------------------------------------|
A|-------------------------------------------------------------|
F|-------------------------------------------------------------|
C|-12---------9--9-9-9-9-9-5--5-5-7--7-7-12--12-12-12-12-12-12-|
G|-12---------9--9-9-9-9-9-5--5-5-7--7-7-12--12-12-12-12-12-12-|
C|-12---------9--9-9-9-9-9-5--5-5-7--7-7-12--12-12-12-12-12-12-|

D|------------------------------------------------------------------------|
A|------------------------------------------------------------------------|
F|------------------------------------------------------------------------|
C|-12--12-12-12-12-12-12-9--9-9-9-9-9-5--5-5-7--7-7-12--12-12-12-12-12-12-|
G|-12--12-12-12-12-12-12-9--9-9-9-9-9-5--5-5-7--7-7-12--12-12-12-12-12-12-|
C|-12--12-12-12-12-12-12-9--9-9-9-9-9-5--5-5-7--7-7-12--12-12-12-12-12-12-|

Verse 2

D|------------------------------------------------------------------------------------------|
A|------------------------------------------------------------------------------------------|
F|------------------------------------------------------------------------------------------|
C|-------12-------12-----7-----7-----5-----5-----7-------12-----7--5--7--12-12-12-12-12-----|
G|-------12-------12-----7-----7-----5-----5-----7-------12-----7--5--7--12-12-12-12-12-----|
C|-12-12-12-12-12-12-7-7-7-7-7-7-5-5-5-5-5-5-7-7-7-12-12-12-7-7-7--5--7--12-12-12-12-12-----|
    . .     .  .     . .   . .   . .   . .   . .    .  .    . .

D|----------------------------------------------------------------------------------------|
A|----------------------------------------------------------------------------------------|
F|----------------------------------------------------------------------------------------|
C|-------12-------12-----7-----7-----5-----5-----7-----7-------12-----7-----5-----7-------|
G|-------12-------12-----7-----7-----5-----5-----7-----7-------12-----7-----5-----7-------|
C|-12-12-12-12-12-12-7-7-7-7-7-7-5-5-5-5-5-5-7-7-7-7-7-7-12-12-12-7-7-7-5-5-5-7-7-7-------|

Pre Chorus

D|--------------------------------------|
A|--------------------------------------|
F|--------------------------------------|   X2
C|-9-9---9-9---9-9---9-10-10-10---------|     
G|-9-9---9-9---9-9---9-10-10-10---------|
C|-9-9---9-9---9-9---9-10-10-10---------|

D|-------------------------------|
A|-------------------------------|
F|-------------------------------|   X2
C|-9-9--9-9--9-9-9-9-7-7---------|     
G|-9-9--9-9--9-9-9-9-7-7---------|
C|-9-9--9-9--9-9-9-9-7-7---------|

Chorus

D|-------------------------------------------------------------|
A|-------------------------------------------------------------|
F|-------------------------------------------------------------|
C|-12---------9--9-9-9-9-9-5--5-5-7--7-7-12--12-12-12-12-12-12-|
G|-12---------9--9-9-9-9-9-5--5-5-7--7-7-12--12-12-12-12-12-12-|
C|-12---------9--9-9-9-9-9-5--5-5-7--7-7-12--12-12-12-12-12-12-|

D|------------------------------------------------------------------------|
A|------------------------------------------------------------------------|
F|------------------------------------------------------------------------|
C|-12--12-12-12-12-12-12-9--9-9-9-9-9-5--5-5-7--7-7-12--12-12-12-12-12-12-|
G|-12--12-12-12-12-12-12-9--9-9-9-9-9-5--5-5-7--7-7-12--12-12-12-12-12-12-|
C|-12--12-12-12-12-12-12-9--9-9-9-9-9-5--5-5-7--7-7-12--12-12-12-12-12-12-|


Chorus (start with just drums and vocals)
Then when the keyboard come in play

D|----------------------------------------------------------------------------------------|
A|----------------------------------------------------------------------------------------|
F|----------------------------------------------------------------------------------------|
C|-------12-------12-----7-----7-----5-----5-----7-----7-------12-----7-----5-----7-------| X 1
G|-------12-------12-----7-----7-----5-----5-----7-----7-------12-----7-----5-----7-------|
C|-12-12-12-12-12-12-7-7-7-7-7-7-5-5-5-5-5-5-7-7-7-7-7-7-12-12-12-7-7-7-5-5-5-7-7-7-------|

then play 

D|-------------------------------------------------------------------|
A|-------------------------------------------------------------------|
F|-------------------------------------------------------------------|
C|-13-13------10--10-10-10-10-10-6--6-6-8--8-8-13--13-13-13-13-13-13-|
G|-13-13------10--10-10-10-10-10-6--6-6-8--8-8-13--13-13-13-13-13-13-|
C|-13-13------10--10-10-10-10-10-6--6-6-8--8-8-13--13-13-13-13-13-13-|


D|-----------------------------------------------------------------------|
A|-----------------------------------------------------------------------|
F|-----------------------------------------------------------------------|
C|-13-13-13-13-13-10--10-10-10-10-10-6--6-6-8--8-8-13--13-13-13-13-13-13-|
G|-13-13-13-13-13-10--10-10-10-10-10-6--6-6-8--8-8-13--13-13-13-13-13-13-|
C|-13-13-13-13-13-10--10-10-10-10-10-6--6-6-8--8-8-13--13-13-13-13-13-13-|

Ending
(bass solo then play)

D|--------------------------------------------------------|
A|--------------------------------------------------------|
F|--------------------------------------------------------|
C|-----------------------------------------13-13-13-13-13-|
G|-----------------------------------------13-13-13-13-13-|
C|--13-13-13-15-20-17-15-20-17-15-20-17-15-13-13-13-13-13-|



aaaaand thats it :) thanks :)
Tap to rate this tab
# A B C D E F G H I J K L M N O P Q R S T U V W X Y Z