Song name
# A B C D E F G H I J K L M N O P Q R S T U V W X Y Z

Maximum The Hormone - Koi No Mega-lover tab

I play this song different from the videos on youtube, but its the same notes, if you 
play it the other way just tune to drop C and play everything 3 frets up the neck except 
opens, this is my first tab so dont get to pissed if it not good.
If anythings wrong email me  a_smith1995@yahoo.com
if you know the real lyrics, please email me, my band is trying to cover this song but 
hard when you dont know what their saying, thanks.
-Adam

song: Koi No Mega Lover
Artist:Maximum The Hormone
Tuning: Drop D (or C)

Intro
e----------------------------------------------------------------------------|
B----------------------------------------------------------------------------|
G----------------------------------------------------------------------------|
D--6-6-7-8------6-6-7-8-----6-6-7-8-8'------6-6-7-8'-------------------------|
A--6-6-7-8------6-6-7-8-----6-6-7-8-8'-x12--6-6-7-8'-x12---------------------|
D--6-6-7-8------6-6-7-8-----6-6-7-8-8'------6-6-7-8'-------------------------|


Chorus                          mini Hammer on part
e----------------------------------------------------------------------------|
B-------------------------------8h10-----------------------------------------|
G---------8-8-8-5-5-5----------8---------------------------------------------|
D-6-6-88--8-8-8-5-5-5---------------12---------------------------------------|
A-6-6-88--6-6-6-3-3-3---X4---------------------------------------------------|
D-6-6-88---------------------------------------------------------------------|

Verse
e----------------------------------------------------------------------------|
B----------------------------------------------------------------------------|
G----------------------------------------------------------------------------|
D-0-3-0-3-0-3-0-3-5-6----000-653-0-0----0-3-0-356-----653-653----------------|
A-0-3-0-3-0-3-0-3-5-6-x4-000-653-0-0x3--0-3-0-356-x2--653-653----------------|
D-0-3-0-3-0-3-0-3-5-6----000-653-0-0----0-3-0-356-----653-653----------------|

e---------------------------------------------------------|
B---------------------------------------------------------|
G---------------------------------------------------------|
D-0-0-0-0-3-5-6-0-0-0-0-3-5-6-0-0-0-0-3-5-6--6-5-3-6-5-3--|
A-0-0-0-0-3-5-6-0-0-0-0-3-5-6-0-0-0-0-3-5-6--6-5-3-6-5-3--|repeat previous part
D-0-0-0-0-3-5-6-0-0-0-0-3-5-6-0-0-0-0-3-5-6--6-5-3-6-5-3--|

Pre-Chorus/Breakdown thingy

e----------------------------------------------------------------------------|
B----------------------------------------------------------------------------|
G-5------------------8---------5-----------------8---------------------------|
D-5----6------8------8--x8-----5-x6--6-----8-----8--x6-----------------------|
A-3-x8-6-x8---8--x8--6---------3-----6-x6--8--x6-6---------------------------|
D------6------8----------------------6-----8---------------------------------|
                                       figure out strumming pattern here


e----------------------------------------------------------------------------|
B-------------9-8--9-8-------------------------------------------------------|
G-------------9-8--9-8--------------------------8-8-88--5--------------------|
D--6'---------9-8--9-8--x2--------6-6-66-8-8-88-8-8-88--5--------------------|
A--6'-x16-------------------------6-6-66-8-8-88-6-6-66--3--------------------|
D--6'-----------------------------6-6-66-8-8-88------------------------------|


e----------------------------------------------------------------------------|
B----------------------------------------------------------------------------|
G----------------------------------------------------------------------------|
D--6'--------8'-------888-8-8------------------------------------------------|
A--6'-x16----8'x8-----888-8-8------------------------------------------------|
D--6'--------8'-------888-8-8------------------------------------------------|

Repeat Chorus
Repeat Verse
Repeat Breakdown
Reapeat Chorus


Solo (as best as i can)
e----------------------------------------------------------------------------|
B----------------8-8--12b-8-------------10h12--------------------------------|
G---8--10--8--10-------------8--10-8-10--------10-8--------------------------|
D--------------------------------------------------X2------------------------|
A----------------------------------------------------------------------------|
D----------------------------------------------------------------------------|

Repeat Intro


There ya go! email me if something wrong
-Adam
Tap to rate this tab
 
# A B C D E F G H I J K L M N O P Q R S T U V W X Y Z