Song name
# A B C D E F G H I J K L M N O P Q R S T U V W X Y Z

Maximum The Hormone - Chu Chu Lovely Muni Muni Mura Mura Purin Purin Boron Nururu Rero Rero tab

Artist: Maximum the Hormone
Album: Buiiki Kaesu
Song: Chu Chu Lovely Muni Muni Mura Mura Purin Purin Boron Nurururerorero
Tuning: EADGBE
Tabbed by: Just

Here's my take on this song by ear, I'm positive I did this correct entirely.
If you have any questions, you can also view my cover;
http://www.youtube.com/watch?v=2pP_2_VZvxE

Good luck! 






LEGEND;
~ - let ring
x - mute note
b - bend

INTRO
[0:01 - 0:15]
E|--------------------------| first 3 chords are strummed 6x 
B|--------------------------| last 3 chords are strummed once 
G|-8--5---------7~--10~-----| 
D|-8--5--6--8~--7~--10~-----| Play this 3x 
A|-6--3--6--8~--5~--8~------| 
E|-------4--6~--------------|

Pre-verse
[0:16 - 0:22]
E|---xxxx------xxxx-----xxx--------------|
B|---xxxx------xxxx-----xxx--------------|
G|-8-xxxx--6-8-xxxx-6-8-xxx-6-8-------10-| Play this 2x
D|-8-xxxx--6-8-xxxx-6-8-xxx-6-8--7-10-10-|
A|-6-xxxx--4-6-xxxx-4-6-xxx-4-6--7-10-8--|
E|---xxxx------xxxx-----xxx------5-8-----|

Pre-verse (cont'd)
[0:23 - 0:29]
E|-------|               E|----------|
B|-------|               B|----------|
G|-88-66-| play 3x, then G|-8------10|
D|-88-66-|               D|-8-7-10-10|
A|-66-44-|               A|-6-7-10-8-|
E|-------|               E|---5-8----| 

Verse 
[0:30 - 0:37]
E|---------------------------|
B|---------------------------|
G|---------------------------| play 2x; listen for timing & play along
D|-88----88----8--9--11------|
A|-88----88----8--9--11------|
E|-66----66----6--7--9-------|

Verse (cont'd)
[0:38 - 0:44]
E|---------------------------------------|
B|---------------------------------------|
G|----xxxxxxxxxxxx-----------------------| play 2x
D|-88-xxxxxxxxxxxx----88-xxxx-8-9-11-----|
A|-88-xxxxxxxxxxxx----88-xxxx-8-9-11-----|
E|-66-xxxxxxxxxxxx----66-xxxx-6-7-9------|

Verse (cont'd)
[0:45 - 0:59]
E|-------------------------------|
B|-------------------------------|
G|-------------------------------|
D|-88-x9x-88-x9x-88-x9x-8-9-11---| play 4x 
A|-88-x9x-88-x9x-88-x9x-8-9-11---|
E|-66-x7x-66-x7x-66-x7x-6-7-9----|

Chorus
[1:00 - 1:03]
E|----------------------|
B|----------------------|
G|-8~--5~---------7--10-|
D|-8~--5~--6~--8--7--10-| Played 1x
A|-6~--3~--6~--8--5--8--|
E|---------4~--6--------|

Chorus (cont'd)
[1:04 - 1:07]
E|--------------------------------|
B|----8---------4-----------------|
G|------8---------5-----5-------7-|
D|------------------------6-------|
A|-6~-------3~--------------------|
E|-------------------4~------6~---|



Repeat Intro     [1:08 - 1:14]
Repeat Pre-verse [1:15 - 1:28]
Repeat Verse     [1:29 - 1:58]
Repeat Chorus    [1:59 - 2:16]



[from 2:14 - 2:16]
E|-----|
B|-----|
G|-8~--| let this chord ring until beginning the solo
D|-8~--|
A|-6~--|
E|-----|



SOLO
E|-----------8---8-----------|
B|------8-11b-11b--11-8------|
G|-/8-8-----------------10---|
D|---------------------------|
A|---------------------------|
E|---------------------------|

E|---------------------------|
B|----------------11---------|
G|-----8-10-8-10b----11-8----|
D|-/10--------------------10-|
A|---------------------------|
E|---------------------------|

E|--------------------8~----------------|
B|-11~--8---------------------------11~-|
G|---------10--8~--/9-----12-10-12------|
D|--------------------------------------|
A|--------------------------------------|
E|--------------------------------------|


E|------11------11-|
B|-11h13--11h13----|
G|-----------------| repeat this until
D|-----------------|
A|-----------------|
E|-----------------|

[2:29]
E|-13fb-13fb-13--11----11--------|
B|------------------13-----------|
G|-------------------------------|
D|-------------------------------|
A|-------------------------------|
E|-------------------------------|

E|-16-16--15--13\----------------|
B|-------------------------------|
G|-------------------------------|
D|-------------------------------|
A|-------------------------------|
E|-------------------------------|

[2:33]
E|---------------------|
B|---------------------|
G|-----------8~---5~---|
D|-6~---8~---8~---5~---|
A|-6~---8~---6~---3~---|
E|-4~---6~-------------|

E|----------------------------------|
B|---------------8------------------|
G|-----------8~----8----------------|
D|-6~---8~---8~------8--------------|
A|-6~---8~---6~---------------------|
E|-4~---6~--------------------------|

E|----------------------------------|
B|---------4~--3~-------------------|
G|---------5~--3~----------8~--8888-|
D|-6~--5~--5~--3~--6~--8~--8~--8888-|
A|-6~--5~--3~--1~--6~--8~--6~--6666-|
E|-4~--3~----------4~--6~-----------|

Repeat Intro [2:48]

End on this chord and do not let ring.
E|---|
B|---|
G|-8-|
D|-8-|
A|-6-|
E|---|
Tap to rate this tab
 
# A B C D E F G H I J K L M N O P Q R S T U V W X Y Z