Song name
# A B C D E F G H I J K L M N O P Q R S T U V W X Y Z

Maximum The Hormone - Black Yen Power G-man Spy tab

Intro
e---------------------------|
B---------------------------|
G---------------------------|
D-----------------3---------|
A---5b----3---5-------------|
D-0----0----0---0-----------| x what feels like way too many times

After last time:
e---------------------------|
B---------------------------|
G---------------------------|
D---------------------------|
A---5--3h5-3h5-3h5----------|
D-0-------------------------|

Verses:
e--------------------------------------------------------------------------|
B--------------------------------------------------------------------------|
G--------------------------------------------------------------------------|
D--------------------------------------------------------------------------|
A---5-3h5-----8-----3-----5-3h5-----8-----3----5-3h5-----8-----3-0-0-0-0-0-|
D-0-------5h7---5h7-----0-------5h7---5h7----0-------5h7---5h7---0-0-0-0-0-|

e---------------------------------------------------------------------------|
B---------------------------------------------------------------------------|
G---------------------------------------------------------------------------|
D---------------------------------------------------------------------------|
A---5-3h5----8-----3-----5-3h5-----8-----3----5-3h5-----8-----3--5-3h5------|
D-0------5h7---5h7-----0-------5h7---5h7----0-------5h7---5h7---0-----3h5-3-|

e----------------------------------------------------------------------------|
B----------------------------------------------------------------------------|
G----------------------------------------------------------------------------|
D---------------------------------------------------------------------3------|
A---5-3h5---8----3--5-3h5-----8-----3----5-3h5-----8----3---5-3h5p3----5-3-5-|
D-0------5h7--5h7--0-----5h7---5h7----0-------5h7---5h7---0---------5--------|

Chorus
e--------------------------------------------|
B--------------------------------------------|
G--------------------------------------------|
D-7-7-xxx-7--7-7-7-7-7--5-5-xxx-5--5-5-5-5-5-|
A-5-5-xxx-5--5-5-5-5-5--3-3-xxx-3--3-3-3-3-3-|
D--------------------------------------------|

e--------------------------------------------------|
B--------------------------------------------------|
G--------------------------------------------------|
D-3--3--3-3-3-3--2--2--2-2-2-2--5--5--5-5-5-5------|
A-1--1--1-1-1-1--0--0--0-0-0-0--3--3--3-3-3-3------|
D--------------------------------------------------|

Solo           (Rest for a bar)
e---------------------l--l-------------------------------------------------|
B---------------------l--l-------------------------------------------------|
G---------------------l--l-------------------------------------------------|
D---------------------l--l-------------------------------3p0---5p0---------|
A---5-3h5-----8-----3-l--l----5--3h5-----8-----3----5p3------0------0-3-5~-|
D-0-------5h7---5h7---l--l--0--------5h7---5h7----0-----5------------------|

Bridge
e-----------------------------------------------------|
B-----------------------------------------------------|
G-------------------------7-10-12-14------------------|
D-5--3-3---5--7-7---3--5--x-x--x--x-------------------|
A-3--1-1---3--5-5---1--3--5-8--10-12------------------|
D-----------------------------------------------------|

e----------------------------------------------------------------------------|
B----------------------------------------------------------------------------|
G-----------------------------------------------------------------7-10-12-14-|
D3-3-xxx-5--5-5-5-5-5-7-7-xxx5--5-5-5-5-5--3-3-xxx--5--5-5-5-5-5--x-x--x--x--|
A1-1-xxx-3--3-3-3-3-3-5-5-xxx3--3-3-3-3-3--1-1-xxx--3--3-3-3-3-3--5-8--10-12-|
D----------------------------------------------------------------------------|

e----------------------------------------------------------------------------|
B----------------------------------------------------------------------------|
G----------------------------------------------------------------------------|
D-3-xx-3-xx-5-xx-5-xx-7-xx-7-xx-5-xx-5-xx-3-xx-3-xx-5-xx-5-xx5-5-5-5-5-5-5-5-|
A-1-xx-1-xx-3-xx-3-xx-5-xx-5-xx-3-xx-3-xx-1-xx-1-xx-3-xx-3-xx3-3-3-3-3-3-3-3-|
D----------------------------------------------------------------------------|

Outro
e--------------------------------------------------------------------------|
B--------------------------------------------------------------------------|
G--------------------------------------------------------------------------|
D--------------------------------------------------------------------------|
A---5-3h5-----8-----3-----5-3h5-----8-----3----5-3h5-----8-----3-0-0-0-12/-|
D-0-------5h7---5h7-----0-------5h7---5h7----0-------5h7---5h7---0-0-0-12/-|

Order:
Intro
Verse
Chorus
Verse
Chorus
Solo
Chorus
Bridge
Outro

And that is it. Enjoy
Tap to rate this tab
 
# A B C D E F G H I J K L M N O P Q R S T U V W X Y Z