Song name
# A B C D E F G H I J K L M N O P Q R S T U V W X Y Z

Maximum The Hormone - Yoshu Fukushu tab

-------------------------------------------------------------------------------
                             Yohsu Fukushu - Maximum the Hormone
-------------------------------------------------------------------------------
Tabbed by: Ahrum
E-mail: TheMoogleDance@hotmail.com

Tuning: Drop C

Opening (Echo)
d|----5--0----0---0---|
A|--------7--------7--|
F|---------------7----|
C|--0---0---0---0-----|
G|--------------------|
C|--------------------| x12

(Heavy Distortion)
d|------------------------|
A|------------------------|
F|----7----6---5-------3--|
C|--0-x-00-x-0-x-0-1-3-3--|
G|--0-5-00-4-0-3-0-1-3-1--|
C|--0---00---0---0-1-3----| x6
    x   xx   x   x x x

(Break)


(Heavy Distortion)
d|------------------------|
A|------------------------|
F|----7----6---5-------3--|
C|--0-x-00-x-0-x-0-1-3-3--|
G|--0-5-00-4-0-3-0-1-3-1--|
C|--0---00---0---0-1-3----| x4
    x   xx   x   x x x

(Some kinda weird verse thing)
d|------------------|
A|------------------|
F|------------------|
C|------------------|
G|---5---4---3----1-|
C|-0---00--0---013--| x12
   x   xx  x   

(Tremolo picking and 13th fret stuff)
d|-------------------------------------------------------|
A|-------------------------------------------------------|
F|-------------------------------------------------------|
C|----------------------------------------------------10-|
G|----------------------------------------------------10-|
C|-000-13-0-12-0-15-000-13-0-12-0-15-000-13-0-12-0-15-10-| x2

(Still really fast picking)
d|----------------------------------------------------------|
A|----------------------------------------------------------|
F|----------------------------------------------------------|
C|-12-12-12-13-12-15-12-12-12-13-12-15-12-12-12-13-12-15-10-|
G|-12-12-12-13-12-15-12-12-12-13-12-15-12-12-12-13-12-15-10-|
C|-12-12-12-13-12-15-12-12-12-13-12-15-12-12-12-13-12-15-10-| x4

(Heavy Distortion)
d|--------------------|
A|--------------------|
F|---7---7---7-555555-|
C|-0-7-0-7-0-7-555555-|
G|-0-5-0-5-0-5-333333-|
C|-0---0---0----------| x4

(Clean)
d|-----------------------------------------------------|
A|-----6--6--6--6--6--6--6--6--6--6--6--6--6--6--6--6--|
F|----7--7--7--7--7--7--7--7--7--7--7--7--7--7--7--7---|
C|---8--8--8--8--8--8--8--8--7--7--7--7--7--7--7--7----|
G|-----------------------------------------------------|
C|-----------------------------------------------------|

d|-----------------------------------------------------|
A|-------11----11----11----11----11----11----11----11--|
F|-----------------------------------------------------|
C|-----12----12----12----12----12----12----12----12----|
G|---10----10----10----10----10----10----10----10------|
C|-----------------------------------------------------|

d|------------------------------------|
A|-----8--8--8--8---10---10---10---10-|
F|------------------------------------|
C|----8--8--8--8--10---10---10---10---|
G|---6--6--6--6--8----8----8----8-----|
C|------------------------------------|

d|-----------------------------------------------------|
A|-----6--6--6--6--6--6--6--6--6--6--6--6--6--6--6--6--|
F|----7--7--7--7--7--7--7--7--7--7--7--7--7--7--7--7---|
C|---8--8--8--8--8--8--8--8--7--7--7--7--7--7--7--7----|
G|-----------------------------------------------------|
C|-----------------------------------------------------|

d|-----------------------------------------------------|
A|-------11----11----11----11----11----11----11----11--|
F|-----------------------------------------------------|
C|-----12----12----12----12----12----12----12----12----|
G|---10----10----10----10----10----10----10----10------|
C|-----------------------------------------------------|

d|-------------------|
A|-----8--8--8--8-10-|
F|-------------------|
C|----8--8--8--8--10-|
G|---6--6--6--6---8--|
C|-------------------|

(Heavy Distortion)
d|-------------------------------------|
A|-------------------------------------|
F|-----222-----222-----222-x-5-x-5555--|
C|-000-111-000-111-000-111-x-x-x-xxxx--|
G|-000-000-000-000-000-000-x-3-x-3333--|
C|-000-----000-----000-----------------|
   xxx     xxx     xxx

d|-------------------------------------|
A|-------------------------------------|
F|-----222-----222-----222-x-8-x-8888--|
C|-000-111-000-111-000-111-x-7-x-7777--|
G|-000-000-000-000-000-000-------------|
C|-000-----000-----000-----------------|
   xxx     xxx     xxx

d|-------------------------------------|
A|-------------------------------------|
F|-----222-----222-----222-x-5-x-5555--|
C|-000-111-000-111-000-111-x-x-x-xxxx--|
G|-000-000-000-000-000-000-x-3-x-3333--|
C|-000-----000-----000-----------------|
   xxx     xxx     xxx

d|-------------------------------------|
A|-------------------------------------|
F|-----222-----222-----222-x-8-x-8888--|
C|-000-111-000-111-000-111-x-7-x-7777--|
G|-000-000-000-000-000-000-------------|
C|-000-----000-----000-----------------|
   xxx     xxx     xxx

(Clean)
d|-----------------------------------------------------|
A|-----6--6--6--6--6--6--6--6--6--6--6--6--6--6--6--6--|
F|----7--7--7--7--7--7--7--7--7--7--7--7--7--7--7--7---|
C|---8--8--8--8--8--8--8--8--7--7--7--7--7--7--7--7----|
G|-----------------------------------------------------|
C|-----------------------------------------------------|

d|-----------------------------------------------------|
A|-------11----11----11----11----11----11----11----11--|
F|-----------------------------------------------------|
C|-----12----12----12----12----12----12----12----12----|
G|---10----10----10----10----10----10----10----10------|
C|-----------------------------------------------------|

d|------------------------------------|
A|-----8--8--8--8---10---10---10---10-|
F|------------------------------------|
C|----8--8--8--8--10---10---10---10---|
G|---6--6--6--6--8----8----8----8-----|
C|------------------------------------|

d|-----------------------------------------------------|
A|-----6--6--6--6--6--6--6--6--6--6--6--6--6--6--6--6--|
F|----7--7--7--7--7--7--7--7--7--7--7--7--7--7--7--7---|
C|---8--8--8--8--8--8--8--8--7--7--7--7--7--7--7--7----|
G|-----------------------------------------------------|
C|-----------------------------------------------------|

d|-----------------------------------------------------|
A|-------11----11----11----11----11----11----11----11--|
F|-----------------------------------------------------|
C|-----12----12----12----12----12----12----12----12----|
G|---10----10----10----10----10----10----10----10------|
C|-----------------------------------------------------|

d|-------------------|
A|-----8--8--8--8-10-|
F|-------------------|
C|----8--8--8--8--10-|
G|---6--6--6--6---8--|
C|-------------------|

(Distortion)
d|---------------------------|
A|-11---15----11----8----10--|
F|-10---14----12----8----10--|
C|-8----12----12----8----10--|
G|-8----12----10----6----8---|
C|-8----12-------------------| x2
   ^     ^    ^     ^     ^
  x24   x24  x24   x12   x12

(Clean)
d|-------------------------------------------------|
A|-------------------------------------------------|
F|-------------------------------------------------|
C|--0--0--0--0--0--0--0--0--0--0--0--0--0--0--0----|
G|---8--8--8--8--8--8--8--8--8--8--8--8--8--8--8---|
C|-8--8--8--8--8--8--8--8--8--8--8--8--8--8--8--8--|

Thanks for reading.

************************************

| /   slide up
| \   slide down
| h   hammer-on
| p   pull-off
| ~   vibrato
| +   harmonic
| x   Mute note
| b   Bend
| pb  Pre-bend
| br  Bend release
| pbr Pre-bend release
| brb Bend release bend

************************************
Tap to rate this tab
 
# A B C D E F G H I J K L M N O P Q R S T U V W X Y Z