Song name
# A B C D E F G H I J K L M N O P Q R S T U V W X Y Z

Maximum The Hormone - Whats Up People tab

-------------------------------------------------------------------------------
		  What's Up People?! - Maximum The Hormone
-------------------------------------------------------------------------------

Song Name: What's Up People?!
Artist: Maximum The Hormone
Album: Buiikikaesu

Tabbed by: Coolflame 

Email:coolflame@libero.it

Tuning:(C,G,C,F,A,D)

Intro

D|-------------------------------------------|
A|-------------------------------------------|
F|-------------------------------------------|
C|--3-4-0-3-0-3-4-0-3-0-3-4-0-3-0-3--0-0-0---|
G|-----------------------------------0-0-0---| 
C|-----------------------------------0-0-0---|

 X3

D|-------------------------------------------|
A|-------------------------------------------|
F|-------------------------------------------|
C|--3-4-0-3-0-3-4-0-3-0-3-4-0-3-0-3-4--------|
G|-------------------------------------------|
C|-------------------------------------------|

 X1

Riff 1

D|--------------------------------------------------------------------------------|
A|--------------------------------------------------------------------------------|
F|--------------------------------------------------------------------------------|  
C|---3-4-3--0-3-4-3---0-3-4-3---0-3-4-3-----0-3-4-3--0-3-4-3---0-3-4-3---0-3-4-3--|     
G|---3-4-3--0-3-4-3---0-3-4-3---0-3-4-3-----0-3-4-3--0-3-4-3---0-3-4-3---0-3-4-3--|
C|---3-4-3--0-3-4-3---0-3-4-3---0-3-4-3-----0-3-4-3--0-3-4-3---0-3-4-3---0-3-4-3--|

 X2

Riff 2

D|-----------------------------------------------|
A|-----------------------------------------------|
F|-----------------------------------------------|
C|-0-0-0-0---0--0-0-0-0--0--0-0-0-0--0--3-0-3-2--| 
G|-0-0-0-0---0--0-0-0-0--0--0-0-0-0--0--3-0-3-2--|
C|-0-0-0-0---0--0-0-0-0--0--0-0-0-0--0--3-0-3-2--|

 X3

D|------------------------------------------------|
A|------------------------------------------------|
F|------------------------------------------------|
C|-0-0-0-0---0--0-0-0-0--0--0-0-0-0--0---3-2------| 
G|-0-0-0-0---0--0-0-0-0--0--0-0-0-0--0---3-2------|
C|-0-0-0-0---0--0-0-0-0--0--0-0-0-0--0---3-2------|

 X1

Riff 1

D|--------------------------------------------------------------------------------|
A|--------------------------------------------------------------------------------|
F|--------------------------------------------------------------------------------|  
C|---3-4-3--0-3-4-3---0-3-4-3---0-3-4-3-----0-3-4-3--0-3-4-3---0-3-4-3---0-3-4-3--|     
G|---3-4-3--0-3-4-3---0-3-4-3---0-3-4-3-----0-3-4-3--0-3-4-3---0-3-4-3---0-3-4-3--|
C|---3-4-3--0-3-4-3---0-3-4-3---0-3-4-3-----0-3-4-3--0-3-4-3---0-3-4-3---0-3-4-3--|

 X2

Riff 2

D|-----------------------------------------------|
A|-----------------------------------------------|
F|-----------------------------------------------|
C|-0-0-0-0---0--0-0-0-0--0--0-0-0-0--0--3-0-3-2--| 
G|-0-0-0-0---0--0-0-0-0--0--0-0-0-0--0--3-0-3-2--|
C|-0-0-0-0---0--0-0-0-0--0--0-0-0-0--0--3-0-3-2--|

 X3

D|------------------------------------------------|
A|------------------------------------------------|
F|------------------------------------------------|
C|-0-0-0-0---0--0-0-0-0--0--0-0-0-0--0---3-2------|  X 1
G|-0-0-0-0---0--0-0-0-0--0--0-0-0-0--0---3-2------|
C|-0-0-0-0---0--0-0-0-0--0--0-0-0-0--0---3-2------|

Riff 1

D|--------------------------------------------------------------------------------|
A|--------------------------------------------------------------------------------|
F|--------------------------------------------------------------------------------|   
C|---3-4-3--0-3-4-3---0-3-4-3---0-3-4-3-----0-3-4-3--0-3-4-3---0-3-4-3---0-3-4-3--|     
G|---3-4-3--0-3-4-3---0-3-4-3---0-3-4-3-----0-3-4-3--0-3-4-3---0-3-4-3---0-3-4-3--|
C|---3-4-3--0-3-4-3---0-3-4-3---0-3-4-3-----0-3-4-3--0-3-4-3---0-3-4-3---0-3-4-3--|
 
 X2

Ningen part

D|---------------------------------------|
A|---------------------------------------|
F|---------------------------------------|
C|-0-0-0-0-3-3-3-3-5-5-5-5-6-6-5-3-------| 
G|-0-0-0-0-3-3-3-3-5-5-5-5-6-6-5-3-------|
C|-0-0-0-0-3-3-3-3-5-5-5-5-6-6-5-3-------|

 X3

D|---------------------------------------|
A|---------------------------------------|
F|---------------------------------------|
C|-0-0-0-0-3-3-3-3-5-5-5-5-6-6-----------| 
G|-0-0-0-0-3-3-3-3-5-5-5-5-6-6-----------|
C|-0-0-0-0-3-3-3-3-5-5-5-5-6-6-----------|

 X1

D|---------------------------------------|
A|---------------------------------------|
F|-7-7-7-7---------------------5-5-------|
C|-7-7-7-7-3-3-3-3-5-5-5-5-6-6-5-5-------|
G|-5-5-5-5-3-3-3-3-5-5-5-5-6-6-3-3-------|
C|---------3-3-3-3-5-5-5-5-6-6-----------|

 X3

D|---------------------------------------|
A|---------------------------------------|
F|-7-7-7-7-------------------------------| 
C|-7-7-7-7-3-3-3-3-5-5-5-5-6-------------|
G|-5-5-5-5-3-3-3-3-5-5-5-5-6-------------|
C|---------3-3-3-3-5-5-5-5-6-------------|

 X1

Interlude

D|-------------------------------------|
A|-------------------------------------|
F|-------------------------------------|    
C|-0-0-3-0-3-0--0-3-0-3-0----0-3-5-----|
G|-0-0-3-0-3-0--0-3-0-3-0----0-3-5-----|
C|-0-0-3-0-3-0--0-3-0-3-0----0-3-5-----|

 X4

Riff 1

D|--------------------------------------------------------------------------------|
A|--------------------------------------------------------------------------------|
F|--------------------------------------------------------------------------------|  
C|---3-4-3--0-3-4-3---0-3-4-3---0-3-4-3-----0-3-4-3--0-3-4-3---0-3-4-3---0-3-4-3--|     
G|---3-4-3--0-3-4-3---0-3-4-3---0-3-4-3-----0-3-4-3--0-3-4-3---0-3-4-3---0-3-4-3--|
C|---3-4-3--0-3-4-3---0-3-4-3---0-3-4-3-----0-3-4-3--0-3-4-3---0-3-4-3---0-3-4-3--|

 X2

Riff 2

D|-----------------------------------------------|
A|-----------------------------------------------|
F|-----------------------------------------------|
C|-0-0-0-0---0--0-0-0-0--0--0-0-0-0--0--3-0-3-2--| 
G|-0-0-0-0---0--0-0-0-0--0--0-0-0-0--0--3-0-3-2--|
C|-0-0-0-0---0--0-0-0-0--0--0-0-0-0--0--3-0-3-2--|

 X3

D|------------------------------------------------|
A|------------------------------------------------|
F|------------------------------------------------|
C|-0-0-0-0---0--0-0-0-0--0--0-0-0-0--0---3-2------|  
G|-0-0-0-0---0--0-0-0-0--0--0-0-0-0--0---3-2------|
C|-0-0-0-0---0--0-0-0-0--0--0-0-0-0--0---3-2------|

 X1

Riff 1

D|--------------------------------------------------------------------------------|
A|--------------------------------------------------------------------------------|
F|--------------------------------------------------------------------------------|  
C|---3-4-3--0-3-4-3---0-3-4-3---0-3-4-3-----0-3-4-3--0-3-4-3---0-3-4-3---0-3-4-3--|    
G|---3-4-3--0-3-4-3---0-3-4-3---0-3-4-3-----0-3-4-3--0-3-4-3---0-3-4-3---0-3-4-3--|
C|---3-4-3--0-3-4-3---0-3-4-3---0-3-4-3-----0-3-4-3--0-3-4-3---0-3-4-3---0-3-4-3--|

 X2

Ningen Part

D|---------------------------------------|
A|---------------------------------------|
F|---------------------------------------|
C|-0-0-0-0-3-3-3-3-5-5-5-5-6-6-5-3-------|
G|-0-0-0-0-3-3-3-3-5-5-5-5-6-6-5-3-------|
C|-0-0-0-0-3-3-3-3-5-5-5-5-6-6-5-3-------|

 X3

D|---------------------------------------|
A|---------------------------------------|
F|---------------------------------------|
C|-0-0-0-0-3-3-3-3-5-5-5-5-6-6-----------| 
G|-0-0-0-0-3-3-3-3-5-5-5-5-6-6-----------|
C|-0-0-0-0-3-3-3-3-5-5-5-5-6-6-----------|

 X1

D|---------------------------------------|
A|---------------------------------------|
F|-7-7-7-7---------------------5-5-------|  
C|-7-7-7-7-3-3-3-3-5-5-5-5-6-6-5-5-------|
G|-5-5-5-5-3-3-3-3-5-5-5-5-6-6-3-3-------|
C|---------3-3-3-3-5-5-5-5-6-6-----------|

 X3

D|---------------------------------------|
A|---------------------------------------|
F|-7-7-7-7---------------------5-5-7-7---| 
C|-7-7-7-7-3-3-3-3-5-5-5-5-6-6-5-5-7-7---|
G|-5-5-5-5-3-3-3-3-5-5-5-5-6-6-3-3-5-5---|
C|---------3-3-3-3-5-5-5-5-6-6-----------|

 X1

Interlude 2

D|---------------------------------|
A|---------------------------------|
F|---------------------------------|
C|-0---0-0-3-0--3--0---0-3-0-5-6---|   
G|-0---0-0-3-0--3--0---0-3-0-5-6---|
C|-0---0-0-3-0--3--0---0-3-0-5-6---|

 X4

D|---------------------------------|
A|---------------------------------|
F|---------------------------------|
C|-0---0-3-0--3--0--0-0-3-0-5-6----| 
G|-0---0-3-0--3--0--0-0-3-0-5-6----|
C|-0---0-3-0--3--0--0-0-3-0-5-6----|

 X3

D|--------------------|
A|--------------------|
F|--------------------|
C|-0---0-3-0---0------|   
G|-0---0-3-0---0------|
C|-0---0-3-0---0------|

 X1 

D|---------------------------------|
A|---------------------------------|
F|---------------------------------|
C|-0---0-3-0--3--0--0-0-3-0-5-6----| 
G|-0---0-3-0--3--0--0-0-3-0-5-6----|
C|-0---0-3-0--3--0--0-0-3-0-5-6----|

 X4

Ningen Final

D|---------------------------------------|
A|---------------------------------------|
F|---------------------------------------|
C|-0-0-0-0-3-3-3-3-5-5-5-5-6-6-5-3-------| 
G|-0-0-0-0-3-3-3-3-5-5-5-5-6-6-5-3-------|
C|-0-0-0-0-3-3-3-3-5-5-5-5-6-6-5-3-------|

 X7

D|---------------------------------------|
A|---------------------------------------|
F|---------------------------------------|
C|-0-0-0-0-3-3-3-3-5-5-5-5-6-------------| 
G|-0-0-0-0-3-3-3-3-5-5-5-5-6-------------|
C|-0-0-0-0-3-3-3-3-5-5-5-5-6-------------|

 X1


Final Random picking :D (it probably goes like this:)

D|--------------------------------------|
A|--------------------------------------|
F|--------------------------------------|
C|-0-0-3-0-5-0-3-0-0-0-3-0-5-0-6-0------|  
G|-0-0-3-0-5-0-3-0-0-0-3-0-5-0-6-0------|
C|-0-0-3-0-5-0-3-0-0-0-3-0-5-0-6-0------|

X3

Afther that, more random picking... it ends on 

D|--------------------------------------|
A|--------------------------------------|
F|--------------------------------------|
C|-0------------------------------------|
G|-0------------------------------------|
C|-0------------------------------------|


Hope you enjoyed.. that's my first tab!!!

You can see me playing this song on youtube, 
just search coolflame86 :D
Tap to rate this tab
# A B C D E F G H I J K L M N O P Q R S T U V W X Y Z