Song name
# A B C D E F G H I J K L M N O P Q R S T U V W X Y Z

Maxine Nightingale - Right Back Where We Started From tab

This song took me about 5 minutes to figure out.

Guitar 1:

E|----------------------------------------------------------------------------|
B|-o------------------------13----------------------------------------------o-|
G|-----14----12----14-12-14-------14-12----12--14-------------14-12-12--------|
D|--------------------------------------15--------15----12-15----------15-----|
A|-o---------------------------------------------------------------------o----|
D|----------------------------------------------------------------------------|

If you have a friend playing along, give them this.

Guitar 2:

E|-------------------------------------------------------------------------|
B|-------------------------------------------------------------------------|
G|-------------------------------------------------------------------------|
D|------7----5----7-5-7-10------7-5-3-5--7--3--0-3--7-5-5-3----------------|
A|------7----5----7-5-7-10------7-5-3-5--7--3--0-3--7-5-5-3----------------|
D|------7----5----7-5-7-10------7-5-3-5--7--3--0-3--7-5-5-3----------------|
Tap to rate this tab
# A B C D E F G H I J K L M N O P Q R S T U V W X Y Z