Song name
# A B C D E F G H I J K L M N O P Q R S T U V W X Y Z

Maya Isacowitz - Is It Alright tab

------------------------------------------------------------------------------
			    is it alright - maya isacowitz
-------------------------------------------------------------------------------
Tabbed by:
Email:

Tuning:normal
verse

e|----------------------------------------------|
B|-10----10---------6-----6-/--8----8-----------|
G|-------------12-------------------------------| 
D|----12----12----------8---------10------------|
A|----11----11--------8---------10--------------|
E|----------------------------------------------|

verse ending

e|---------------------------------------------------------------|
B|-10----10-----------6----6-----------3-----3-------------------|
G|-------------12----------------8-----------------5-------------| 
D|----12----12-----------8----8-----------5-----5------5---------|
A|----11----11-----------8----8-----------4-----4------4---------|
E|---------------------------------------------------------------|

e|-------------------------|
B|----6-----6-/--8----8----|
G|-------------------------| 
D|--------8---------10-----|
A|------8---------10-------|
E|-------------------------|

bridge

|-----------------------------------------------------------------|
B|-10----10---------8------8-----8--/--6---6---6--\--8----8----8--|
G|-------------12---------------10-------------8--------------10--| 
D|----12----12---------10----10----------8---8---------10--10-----|
A|----11----11---------10----10----------8---8---------10--10-----|
E|----------------------------------------------------------------|



************************************

| /   slide up
| \   slide down
| h   hammer-on
| p   pull-off
| ~   vibrato
| +   harmonic
| x   Mute note
| b   Bend
| pb  Pre-bend
| br  Bend release
| pbr Pre-bend release
| brb Bend release bend

************************************
Tap to rate this tab
# A B C D E F G H I J K L M N O P Q R S T U V W X Y Z