Song name
# A B C D E F G H I J K L M N O P Q R S T U V W X Y Z

Mayday Parade - Take This To Heart tab

Artist: Mayday Parade
Song: Take This To Heart
Album: A Lesson In Romantics
Tabbed By: guitarchick111
Email: heyskatebarder@aol.com

Tuning: Standard


|----------|
| GUITAR 1 |
|----------|

Intro:
e|------------0------0-----0--|
B|----------0------0-----0----|
G|--8---8H9-------------------|
D|----9----------11-----9-----|  6X
A|----------------------------|
E|----------------------------|

Verse:
e|-----------------------------|
B|-----------------------------|
G|--8-9--------8-9-------------|
D|-------9~--------9/11--------| 1X
A|----------------------9/11~--|
E|-----------------------------|

Pre-Chorus:
e|---------------------------|
B|---------------------------|
G|--2-------4-------6--------|
D|--2-(8x)--4-(8x)--6-(16x)--| 2X
A|--0-------2-------4--------|
E|---------------------------|
    .       .       .

e|-----------------------------------|
B|-----------------------------------|
G|--2-------4---------------66-6666--|
D|--2-(8x)--4-(8x)--6-------66-6666--|
A|--0-------2-------6-(8x)--44-4444--|
E|------------------4----------------|
    .       .       .       

e|------------------|
B|------------------|
G|--2-------4-------|
D|--2-(8x)--4-(5x)--|
A|--0-------2-------|
E|------------------|

Chorus:
e|----------------------------------------------|
B|----------------------------------------------|
G|--9-9-9~----4-4-4~----2-2-2~----4-4-4-4444-4--|
D|--9-9-9~----4-4-4~----2-2-2~----4-4-4-4444-4--|
A|--7-7-7~----2-2-2~----0-0-0~----2-2-2-2222-2--|
E|----------------------------------------------|
                                        ....

e|------------------------------------------|
B|------------------------------------------|
G|--9-------4-------2-------6-------4-------|
D|--9-(8x)--4-(8x)--2-(8x)--6-(4x)--4-(4x)--|
A|--7-------2-------0-------4-------2-------|
E|------------------------------------------|

Intro 3X
Verse
Pre-Chorus
Chorus
Intro 4X

Bridge:
e|------------------------------------------|
B|------------------------------------------|
G|--9-------2-------6-------4-------2-------|
D|--9-(8x)--2-(8x)--6-(4x)--4-(4x)--2-(8x)--| 2X (second time with different
A|--7-------0-------4-------2-------0-------|            strumming pattern)
E|------------------------------------------|

Chorus
Intro 2X


There's another guitar and I'll tab it out another time.
Tap to rate this tab
 
# A B C D E F G H I J K L M N O P Q R S T U V W X Y Z