Song name
# A B C D E F G H I J K L M N O P Q R S T U V W X Y Z

Mayday Parade - Jersey tab

-------------------------------------------------------------------------------
			     Jersey - Mayday Parade
-------------------------------------------------------------------------------
Tabbed by:swosusfinest
Email:epleyh@student.swosu.edu

Tuning:standard

Intro(clean) (Guitar 1)  repeat twice
e|--------6--------4--------4--------4---------------------------------------|
B|--------6--------7--------4--------4---------------------------------------|
G|--------6--------6--------6--------5---------------------------------------|
D|--------8--------4--------6--------6---------------------------------------|
A|--------8--------4--------4--------6---------------------------------------|
E|--------6--------x--------x--------4---------------------------------------|

Intro(distortion) (Guitar 2)  come in second time through guitar 1s part
play each note 16 times palm muted
e|---------------------------------------------------------------------------|
B|---------------------------------------------------------------------------|
G|---------------------------6-----------------------------------------------|
D|---------8--------4--------6--------6--------------------------------------|
A|---------8--------4--------4--------6--------------------------------------|
E|---------6--------2-----------------4--------------------------------------|


Fill/Break/2nd Intro its just whatever(Distortion) (Guitar 1)
e|---------------------------------------------------------------------------|
B|---------------------------------------------------------------------------|
G|--------6-------------------------------------------------6~~--------------|
D|--------6(x16ish)-6---------------------------------------4~~--------------|
A|--------4---------6(x16ish)-------------------------------4~~--------------|
E|------------------4--------------------------------------------------------|

Fill/Break/2nd Intro  (Distortion)  (Guitar 2)
e|---------------------------------------------------------------------------|
B|---------------------------------------------------------------------------|
G|--------(-10/8/10-10-10-10--11---------)------8-------5--------------------|
D|--------(--x-x--x--x--x--x---x-(x8ish)-)x2----x(x16)--x(x16)---------------|
A|--------(--8/6/-8--8--8--8---9---------)------6-------3--------------------|
E|---------------------------------------------------------------------------|

Verse 1  (Distortion)   (Guitar 1) He rings out for the very first part of the verse 
to the song for when he comes back in
e|---------------------------------------------------------------------------|
B|-----------9-----6---------------------9-------9-----6---------------------|
G|--------5h6---5h6---5h6---1-1s3-1-5h6h7---5h6h7---5h6---5h6-1-1s3-1--------|
D|---------------------------------------------------------------------------|
A|---------------------------------------------------------------------------|
E|---------------------------------------------------------------------------|

Verse 1  (Distortion)  (Guitar 2) palm mute all this on fourth time through
just play the 6,5,6 then back to 5 but gradually unpalm mute it
e|---------------------------------------------------------------------------|
B|--------(----------------------------------)-------------------------------|
G|--------(--6(x8)-5(x8)-6(x8)-10(x4)-8(x4)--)(x4)---------------------------|
D|--------(----------------------------------)-------------------------------|
A|---------------------------------------------------------------------------|
E|---------------------------------------------------------------------------|

Chorus 1 (Distortion)  (Guitar 1)  All notes strummed roughly 16 times 
except last two played 8 times each Play whole thing twice 
e|---------------------------------------------------------------------------|
B|---------------------------------------------------------------------------|
G|--------------------------6------------------------------------------------|
D|--------8--------4--------6--------6----7----------------------------------|
A|--------8--------4--------4--------6----7----------------------------------|
E|--------6--------2-----------------4----5----------------------------------|

Chorus 1  (Distortion)  (Guitar 2)  This part is kinda tricky and can be hard to hear I assure
you it is in there Play through this twice as well slide when it says slide but still
strum all the notes
e|---------------------------------------------------------------------------|
B|---------------------------------------------------------------------------|
G|--------(--6----/13---/8----/10----)-----10----11-----8-----5--------------|
D|--------(--x(x5)/x(x3)/x(x4)/x(x4)-)(x2)--x(x8)-x(x8)-x(x8)-x(x8)----------|
A|--------(--4----/11---/6----/8-----)------8-----9-----6-----3--------------|
E|---------------------------------------------------------------------------|

Now go back to the Fill/Break/2nd Intro thing again and play that through twice just 
the first time

Now it is time for Verse 2 which is just the same as Verse 1 so do the same thing there

Now go to Chorus 2 which is still the same thing so do that again and then...

Bridge  (Distortion)  (Guitar 1) Play twice
e|---------------------------------------------------------------------------|
B|---------------------------------------------------------------------------|
G|---------------------------------------------------------------------------|
D|--------4-4-4~~--6-6-6~~--8-8-8~~--8-8-8~~---------------------------------|
A|--------4-4-4~~--6-6-6~~--8-8-8~~--8-8-8~~---------------------------------|
E|--------2-2-2~~--4-4-4~~--6-6-6~~--6-6-6~~---------------------------------|

Bridge  (Distortion)  (Guitar 2)  Now the first time through you can just play what the 1st
guitar plays up until that solo thing if you want or just whatever  I think this is right
if not you guys just let me know On the last  A# in like the middle of the strumming of guitar
1 this solo kicks off with...You can also hammer these on and it would sound good but he
chooses to pick every note so thats why i don't have the little hammer symbol in here
e|---------------------------------------9~~---------------------------------|
B|---------------------------------9-6-7-------------------------------------|
G|-------------------------10-8-6--------------------------------------------|
D|----------------12-8-10----------------------------------------------------|
A|--------8-9-11-------------------------------------------------------------|
E|---------------------------------------------------------------------------|

Bridge(Cont.)  (Distortion)  (Guitar 2)  This is while the 1st guitar is playing it the 2nd
time through
e|--------8/-----------------------------------------------------------------|
B|---------------------------------------------------------------------------|
G|----------/5----6----10-/--13-/--10-/--6~~---------------------------------|
D|----------/x----x----x--/--x--/--x--/--x-----------------------------------|
A|----------/3----4----8--/--11-/--8--/--4~~---------------------------------|
E|---------------------------------------------------------------------------|

Then let it ring out for 2 measures and then start sliding your hand up and down in a grating
motion up and down the strings and move your hand down the neck then back up and it'll 
that
funky sound you hear then just come back in to the chorus but move everything up two frets
cause they change the key on us...so the A#(6 would move to 8 etc...) would be a C,
F# would be a G# etc...Finally...

Final Chorus(Distortion)   (Guitar 2) Play Twice
e|---------------------------------------------------------------------------|
B|---------------------------------------------------------------------------|
G|--------(10/12-12-12-12-12-12--8-8-8-8-8-8-8)-------7----------------------|
D|--------(-x--x--x--x--x--x--x--x-x-x-x-x-x-x)(X3)---x(X16)-----------------|
A|--------(-8/10-10-10-10-10-10--6-6-6-6-6-6-6)-------5----------------------|
E|---------------------------------------------------------------------------|


Outro (Distortion)  (Both Guitars)
e|---------------------------------------------------------------------------|
B|---------------------------------------------------------------------------|
G|--------5-5-5/7-7-7/8-8-8/10-10-10/12-12-12/15-15-17~/---------------------|
D|--------x-x-x/x-x-x/x-x-x/x--x--x-/x--x--x-/x--x--x-~/---------------------|
A|--------3-3-3/5-5-5/6-6-6/8--8--8-/10-10-10/13-13-15~/---------------------|
E|---------------------------------------------------------------------------|


Well that's is, let me know what you all think...

| /  slide up
| \  slide down
| h  hammer-on
| p  pull-off
| ~  vibrato(or ring out ~~)
| +  harmonic
| x  Mute note
===============================================================================
Tap to rate this tab
 
# A B C D E F G H I J K L M N O P Q R S T U V W X Y Z