Song name
# A B C D E F G H I J K L M N O P Q R S T U V W X Y Z

Mayday Parade - Ocean And Atlantic tab

-------------------------------------------------------------------------------
		     Ocean and Atlantic - Mayday Parade
-------------------------------------------------------------------------------
Tabbed by: Sean Hummer
Email: allstar21369@hotmail.com

Tuning: Drop D

Great song.

Ok, I've only tabbed the Intro, Prechorus, and the first part of
the chorus. No one else has posted this song yet so I figured I would
post this and update it as soon as I could figure the rest out.


Intro
Guitar 1
e|---------------------------------------------------------------------------|
B|---8-----------6p5-5x--5-----------5h6-8x--8-----------8p6-5~x-------------|
G|---5--x22------5---5x--5--x22------5---5x--5--x22------5---5~x-------------|
D|--------------------------------------------------------------------x2-----|
A|---------------------------------------------------------------------------|
D|---------------------------------------------------------------------------|
  PM .                   .                   .


Guitar 2 (Comes in after Guitar 1 plays it's riff once)
e|---------------------------------------------------------------------------|
B|---8~----------------6~--------5~--------5~--------8~----------------------|
G|---5~----------------5~--------5~--------5~--------5~----------------------|
D|---5~----------------5~--------5~--------5~--------5~----------------------|
A|---------------------------------------------------------------------------|
D|---------------------------------------------------------------------------|


Guitar 3
e|---------------------------------------------------------------------------|
B|---8x------------6p5-5x------------5h6-8x------------8p6-5~x---------------|
G|---5x------------5---5x------------5---5x------------5---5~x---------------|
D|--------------------------------------------------------------------x2-----|
A|---------------------------------------------------------------------------|
D|---------------------------------------------------------------------------|





Prechorus
Guitar 1
e|1~----------1~-----------------1~----------1~------------------------------|
B|1~-------------1~----1~--------1~-------------1~----1~---------------------|
G|3~-3~----3~-------3~-----------3~-3~----3~-------3~------------------------|
D|3~----3~-----------------------3~----3~------------------------------------|
A|1~-----------------------------1~------------------------------------------|
D|---------------------------------------------------------------------------|


Guitar 2
e|---------------------------------------------------------------------------|
B|6~-----------------------------6~------------------------------------------|
G|5~-----------------------------5~------------------------------------------|
D|5~-----------------------------5~------------------------------------------|
A|---------------------------------------------------------------------------|
D|---------------------------------------------------------------------------|





Chorus
Guitar 1
e|---------------------------------------------------------------------------|
B|---------------------------------------------------------------------------|
G|---------------------------------------3--------5--------------------------|
D|3---------0------0x-0x-0x----5---------3--x8----5--x8----------------------|
A|3--x16----0--x8--0x-0x-0x----5--x16----1--------3--------------------------|
D|3---------0------0x-0x-0x----5---------------------------------------------|


Guitar 2
e|---------------------------------------------------------------------------|
B|---------------------------------------------------------------------------|
G|10-----9-9-9-9-10\9----13-13-13-13-13-13-x14--x10--9/10--------------------|
D|x--x8--x-x-x-x-x-\x----x--x--x--x--x--x--xx---xx---x/x---------------------|
A|8------7-7-7-7-8-\7----10-10-10-10-10-10-x12--x8---7/8---------------------|
D|---------------------------------------------------------------------------|





| /  slide up
| \  slide down
| h  hammer-on
| p  pull-off
| ~  vibrato
| +  harmonic
| x  Mute note
===============================================================================
Tap to rate this tab
# A B C D E F G H I J K L M N O P Q R S T U V W X Y Z