Song name
# A B C D E F G H I J K L M N O P Q R S T U V W X Y Z

Mayday Parade - When I Get Home Youre So Dead Acoustic tab

When I Get Home, You're So Dead by Mayday Parade
(Acoustic version)

THIS IS THE ONLY RIGHT WAY TO PLAY IT!
all the other tabs I've found are weird, and don't make any sense.
So good luck!

e|---0-0--0----1-1---1-----1-1--1----0-0---0----|
B|---1-1--1----1-1---1-----2-2--2----2-2---2----|
G|---2-2--2----2-2---2-----3-3--3----3-3---3----|         X4
D|---2-2--2----3-3---3----0----0---0-----0------|
A|-0-----0-----3-3---3--------------------------|
E|-----------1-----1----------------------------|
Play this part (4 times) until you get to the chorus


CHORUS:                       |________| <-- play this part a little faster
e|-0-0-0-0--1-1-1-1--1-1-1-1---1-0-3-1----------|
B|-1-1-1-1--1-1-1-1--3-3-3-3---0-0-0-0----------|
G|-2-2-2-2--2-2-2-2--2-2-2-2---0-0-0-0----------|      X4
D|-2-2-2-2--3-3-3-3--0-0-0-0---0-0-0-0----------|
A|-0-0-0-0--3-3-3-3------------2-2-2-2----------|
E|----------1-1-1-1------------3-3-3-3----------|


Right after the chorus:

e|-----0------1-------1-------|
B|-----1------1-------2-------|
G|-----2------2-------3-------|
D|-----2------3---x-x---------|
A|-x-x--------3---------------|
E|--------x-x-1---------------|

Then after that, pretty much just keep playing those first chords over and over again, 
you can use palm muting if you want to like he does in the original version.
I wasn't specific with the timing or rythm, but it's easy to figure out the strumming.
It just does all this throughout the whole song!
So have fun.
(:
Tap to rate this tab
# A B C D E F G H I J K L M N O P Q R S T U V W X Y Z