Song name
# A B C D E F G H I J K L M N O P Q R S T U V W X Y Z

Mayday Parade - Ocean And Atlantic tab

Help us improve GuitareTab! Take a short survey!
Here's the ending solo to Ocean and Atlantic, by Mayday Parade.
One of my favorite bands, just in case you needed to know.(:
rate and comment, tell me what you think of it dawg!

e---------------------------------|
B--13/15\13-10-10h11h13-----------|
G-----------------------10--12----|
D---------------------------------|
A---------------------------------|
E---------------------------------|


e-----------------------13----13--|
B--13/15\13-10-10h11h13----13-----|
G---------------------------------|
D---------------------------------|
A---------------------------------|
E---------------------------------|


e------------------------------------------------------|
B--13/15\13-10-10h11h13--------------------------------|
G-----------------------10-12-12----12/14\12--10p9h10--|
D--------------------------------10--------------------|
A------------------------------------------------------|
E------------------------------------------------------|

then just repeat the whole thing again!


/ = slide up
\ = slide down
h = hammer on
p = pull off
Related for Ocean And Atlantic tab