Guitaretab - guitar tabs
Song name
# A B C D E F G H I J K L M N O P Q R S T U V W X Y Z

Mayday Parade - When I Grow Up tab

When I Grow Up (pussycat dolls cover)
Punk goes pop
Mayday Parade
Tabbed by ELDOPLAYSGUITAR

intro
guitar 1 (can be played on bass if only two guitarists)
e------------------------|
B------------------------|
G------------------------|
D------------------------|
A-7-6-5-4----------------|
E------------------------|

guitar 2 (come in at 0:08)
e----------------------------------|
B----------------------------------|
G----------------------------------|
D-66666666-----1414141414141414----|
A-44444444-x4--1212121212121212-x2-|
E----------------------------------|

guitar 3 (come in at 0:26)weird timing
e---------------------------------------|
B---------------------------------------|
G-66--------66--------1313--------1313--|
D-xx--------xx--------x-x---------x-x---|
A-44-(2222)-44-(2222)-1111-(2222)-1111--|
E---------------------------------------|

Chorus guitar 1&2
e----------------------------|
B----------------------------|
G-16~--14~-13----------------|
D-x----x---x-------16--------|
A-14~--12~-11--14--14--------|
E--------------12------------|

guitar 3 (quietly palm mute)
e---------------------------------------|
B---------------------------------------|
G---------------------------------------|
D-66666666---------------------44444444-|
A-44444444-7777-6666--22222222-22222222-|
E----------5555-4444--00000000----------|

guitar 1,2,3 ...careful what you wish for...
e-----------------------------------|
B-----------------------------------|
G-------------------------6-6-------|
D-------------------------4-4-7-6-5-|
A-1111111-9999-8888-7777------------|x2
E-9-9-9-9-77776666-5555------------|

verse guitar 1&2
e---------------------------|
B---------------------------|
G---------------------------|
D-66666-444-66666-444-66666-|
A-44444-222-44444-222-44444-|
E---------------------------|

guitar 3
e---------------------------------------|
B---------------------------------------|
G-66--------66--------1313--------1313--|
D-xx--------xx--------x-x---------x-x---|
A-44-(2222)-44-(2222)-1111-(2222)-1111--|
E---------------------------------------|

Chorus guitar 1&2
e----------------------------|
B----------------------------|
G-16~--14~-13----------------|
D-x----x---x-------16--------|
A-14~--12~-11--14--14--------|
E--------------12------------|

guitar 3 (quietly palm mute)
e---------------------------------------|
B---------------------------------------|
G---------------------------------------|
D-66666666---------------------44444444-|
A-44444444-7777-6666--22222222-22222222-|
E----------5555-4444--00000000----------|
[ Tab from: http://www.guitaretab.com/m/mayday-parade/182518.html ]
guitar 1,2,3 ...careful what you wish for...
e-----------------------------------|
B-----------------------------------|
G-------------------------6-6-------|
D-------------------------4-4-7-6-5-|
A-1111111-9999-8888-7777------------|x2
E-9-9-9-9-77776666-5555------------|

Bridge guitar 1
e------------------------|
B----9-----7-------------|
G-6-----4----------------|
D-6-----4----------------|x2
A-4-----2----------------|
E------------------------|

guitar 2
e------------------------|
B------------------------|
G-6-----4----------------|x2
D-x-----x----------------|
A-4-----2----------------|
E------------------------|

guitar 3
e-----------------------|
B-2-9---0-7-------------|
G-----------------------|
D-----------------------|x2
A-----------------------|
E-----------------------|

(lead into chourus) guitar 1&2
e------------------------|
B------------------------|
G------------------------|
D-444444444444-----------|
A-222222222222-----------|
E------------------------|

guitar 3
e----------11~-----------|
B-7~--12~----------------|
G------------------------|
D------------------------|
A------------------------|
E------------------------|

interlude (pre end chourus)guitar 1
e--------------------------------------------------------------|
B--------------------------------------------------------------|
G-1616161616161616-14141414-13131313-99999999-1111111111111111-|
D-x-x-x-x-x-x-x-x--x-x-x-x--x-x-x-x--xxxxxxxx-x-x-x-x-x-x-x-x--|
A-1414141414141414-12121212-11111111-77777777-9-9-9-9-9-9-9-9--|x2
E--------------------------------------------------------------|

interlude (pre end chourus) guitar 2&3
e----------------------------------------|
B----------------------------------------|
G-----------------------------44444444---|
D-99999999-7777-6666-22222222-xxxxxxxx---|
A-xxxxxxxx-xxxx-xxxx-22222222-22222222---|x2
E-77777777-5555-4444-00000000------------|

Chorus guitar 1&2
e----------------------------|
B----------------------------|
G-16~--14~-13----------------|
D-x----x---x-------16--------|
A-14~--12~-11--14--14--------|
E--------------12------------|

guitar 3 (quietly palm mute)
e---------------------------------------|
B---------------------------------------|
G---------------------------------------|
D-66666666---------------------44444444-|
A-44444444-7777-6666--22222222-22222222-|
E----------5555-4444--00000000----------|


guitar 1,2,3 ...careful what you wish for...
e-----------------------------------|
B-----------------------------------|
G-------------------------6-6-------|
D-------------------------4-4-7-6-5-|
A-1111111-9999-8888-7777------------|x2
E-9-9-9-9-77776666-5555------------|

play untill end
e---------------------------|
B---------------------------|
G---------------------------|
D-66666-444-66666-444-66666-|
A-44444-222-44444-222-44444-|
E---------------------------|
Related for When I Grow Up tab