Song name
# A B C D E F G H I J K L M N O P Q R S T U V W X Y Z

Mayday Parade - The Silence tab

DROP D TUNNING
Check out this cover of "The Silence" http://www.youtube.com/watch?v=XVBMeeC83RQ

Intro:
|------------------------------|
|--------3-2-3-2-3-------3-2---|
|---4-4-4----------2-2-2-----2-|
|------------------------------|
|------------------------------|
|------------------------------|x4

Verse:
|----------------------|
|----------------------|
|--4-------------------|
|--4---------5----2---5| repeat intro and then verse twice
|--2---------5----2---5|
|------------5----2---5|

Play this right before the chorus:
|----|
|----|
|----|
|xxxx|
|xxxx|
|xxxx|

Chorus:
|----------------------------------------------------------------------------|
|----------------------------------------------------------------------------|
|----------------------------------------------------------------------------|
|5----7-----9-----5-----7----9----7----2----0----5-----2----9----7----5----7-|
|5----7-----9-----5-----7----9----7----2----0----5-----2----9----7----5----7-|
|5----7-----9-----5-----7----9----7----2----0----5-----2----9----7----5----7-|

Intro
Verse
Bridge:
|------------------------------|
|------------------------------|
|------------------------------|
|9----12----7----5-----9-----12|
|9----12----7----5-----9-----12|
|9----12----7----5-----9-----12|

Post-Bridge:
|-----------------------|
|-----------------------|
|-----------------------|
|9~--------9-----12----5|
|9~--------9-----12----5|
|9~--------9-----12----5|

Play the chorus twice

Ending:
|------|
|------|
|------|
|2---5~|
|2---5~|
|2---5~|
Tap to rate this tab
 
# A B C D E F G H I J K L M N O P Q R S T U V W X Y Z