Song name
# A B C D E F G H I J K L M N O P Q R S T U V W X Y Z

Mayday Parade - Still Breathing chords

Highlighted       Show chord diagrams
Intro:

e|--------------------------------------------------------------------------|
B|--------------------------------------------------------------------------|
G|-------(x6)-------1-1-----------------------------------------------------|
D|---3-------------------4-3-------1------------3-4p3-1-3-------------------|
A|-1---4---------4-------------4-----------4--------------------------------|
E|-------------2---2---------2---2-------2---2------------------------------|

Play this over the verse. Use a capo on the first fret to hear the harmonic (x6).


Capo I

VERSE

Am                         F
Give me any reason to believe

                    C          G
'Cause I swear I'm done here

             Am             F
'Cause I've seen a bigger picture

          C                G
And I'm looking for some answers

Tell me that it's worth it
'Cause I'm doing all I can to fight it
And I've never been this scared
And my moment's finally here

PRE-CHORUS

F            G
Time's racing (Please slow down)

Am        G
I got to find my way out

F           G
I'm hopeless (But hoping)

Am              G
My lungs won't fail me now

       F         G
'Cause I'm still breathing

CHORUS

C                 G
It's hard to be a man

                    Am
But I'm doing all I can

                       F
I'm ready to give this all I have

                 C
I'm ready to be amazed

                           G
'Cause I'm standing here alone

                             Am
Trying to make this life my own

                            F          G
And nothing will keep this heart from beating

F           G
I'm still breathing

VERSE 2

PRE-CHORUS

CHORUS

BRIDGE

F           C         G
Where do we all find love?

Am           F        G
Where do we all find love?


e|-6----------------------------------6-------11--9--8------6-8-9-------|
B|---6-7-9---6-7-6----------6-7-9-6----6-7-9----9--9----7-9-------------|
G|----------------6-8---6-8---------------------------------------------|
D|----------------------------------------------------------------------|
A|----------------------------------------------------------------------|
E|----------------------------------------------------------------------|

CHORUS

not 100% but enough to get by
disclaimer:music and lyrics are property of Mayday parade and are not my work. tab is 
personal use only.
visit myspace.com/squarelash
Tap to rate this tab
 
# A B C D E F G H I J K L M N O P Q R S T U V W X Y Z