Song name
# A B C D E F G H I J K L M N O P Q R S T U V W X Y Z

Mayday Parade - Last Something That Meant Anything tab

this is my first tab ever :] enjoy.
sorry if any mistakes.
message me at xxgisellebearxx@hotmail.com
if any ?'s


e|--------------------------------------------|
B|--------------------------------------------|
G|--------------------------------------------|
D|-12----12----10----10----9----9----7-5-4-0--|
A|----10----10----10----10---10---10----------|
E|--------------------------------------------|

e|--------------------------------------|
B|--------------------------------------|
G|----------------------------4---------|
D|-----5--------5-------0h4/5----5-4----|
A|-7-5---5--7-5---5--5-------------5----|
E|--------------------------------------|
Tap to rate this tab
# A B C D E F G H I J K L M N O P Q R S T U V W X Y Z