Song name
# A B C D E F G H I J K L M N O P Q R S T U V W X Y Z

Mayday Parade - Bruised And Scarred tab

Bruised and Scarred - Mayday Parade

intro

e-------------------------------------------|
A-------------------------------------------|
F-7-767-7----------------767-7--------------|
C-7------77-542--420---9------77-542--420---|
G-5--------------------9--------------------|
E----------------------7--------------------|

e-------------------------------------------|
A-------------------------------------------|
F---767-7-------7679------------------------|
C-5------77--7------------------------------|
G-5----------7------------------------------|
E-3----------5------------------------------|


verse

e-------------------------------------------|
A-------------------------------------------|
F--77777777---------------------------------|
C--77777777-99999999-55555555-77777777------| X 4
G--55555555-99999999-55555555-77777777------|
E-----------77777777-33333333-55555555------|
   pm.................................


pre-chorus

e-------------------------------------------|
A-------------------------------------------|
F-------------------------------------------|
C-9--7--5--77777----------------------------|
G-9--7--5--77777----------------------------|
E-7--5--3--55555----------------------------|


chorus #= 16 times %= 8 times

e-------------------------------------------|
A-------------------------------------------|
F--7#---------------------------------------|
C--7#--11-9#--7-5%-7%-----------------------| X 2
G--5#--11-9#--7-5%-7%-----------------------|
E------9--7#--5-3%-5%-----------------------|


e-------------------------------------------|
A-------------------------------------------|
F-7-767-7-----------------------------------|
C-7------77-542--420------------------------|
G-5-----------------------------------------|
E-------------------------------------------|


verse x2
pre-chorus
chorus

Bridge

e-------------------------------------------|
A-------------------------------------------|
F--7777-------------------------7777--------|
C--7777-7777-55555555-5555-7777-7777--------| X 2
G--5555-7777-55555555-5555-7777-5555--------|
E-------5555-33333333-3333-5555-------------|


e-------------------------------------------|
A-------------------------------------------|
F----7-7------------------------------------|
C---7-7-7----7-7-----9-9-----5-5------------| 
G--5--------7-7-7---9-9-9---5-5-5-----------|
E----------5-------7-------3----------------|

e-------------------------------------------|
A-------------------------------------------|
F--7--7-------------------------------------|
C--7--7-9--5--7-7777------------------------| 
G--5--5-9--5--7-7777------------------------|
E-------7--3--5-5555------------------------|


chorus

Tabbed by Andreas =)
Tap to rate this tab
# A B C D E F G H I J K L M N O P Q R S T U V W X Y Z