Song name
# A B C D E F G H I J K L M N O P Q R S T U V W X Y Z

Mayday Parade - Three Cheers For Five Years Acoustic tab

Okay, so this is how I play the acoustic version of Mayday Parade's : Three Cheers 
For Five Years, hope you guys enjoy it!



Chords:
F#=244322
E=022100 
G#m=466444
B=224442




finger pick the 1st verse & repeat until the Pre-Chorus

e|---------2---------------2--------|---------2---------------2--------|
B|---0---0---0---0---0---0---0---0--|---0---0---0---0---0---0---0---0--|
G|-4---4-------4---4---4-------4----|-3---3-------3---3---3-------3----|
D|----------------------------------|----------------------------------|
A|----------------------------------|----------------------------------|
E|----------------------------------|----------------------------------|

e|---------2---------------2--------|---------2--------------------------|
B|---0---0---0---0---0---0---0---0--|---0---0---0---0---0---0----0----0--|
G|-1---1-------1---1---1-------1----|-----------------6---6---11---11----|
D|----------------------------------|-4---4-------4----------------------|
A|----------------------------------|------------------------------------|
E|----------------------------------|------------------------------------|


I swear that you dont have to go
I thought we could wait for the fireworks
I thought we could wait for the snow
To wash over Georgia and kill the hurt
I thought I could live in your arms
And spend every moment I had with you
Stay up all night with the stars
Confess all the faith that I had in you


then at the Pre-Chorus begin to strum (duh)

G#m             F#          E
Too late, Im sure and lonely
E
Another night, another dream wasted on you
G#m             F#         E
Just be here now against me
E
You know the words so sing along for me baby

Chorus
B            E                  G#m
For heaven's sake I know you're sorry 
G#m                 E
But you won't stop crying 
          F#                        B
This anniversary may never be the same 
B         E                 G#m
Inside I hope you know I'm dying 
G#m             E
With my heart beside me 
             F#                           E
In shattered pieces that may never be replaced 
         F#   F#    F#  
And if I died right now you'd never be the same


then once again finger pick the beginning once right before you being the 2nd verse

e|---------2---------------2--------|---------2---------------2--------|
B|---0---0---0---0---0---0---0---0--|---0---0---0---0---0---0---0---0--|
G|-4---4-------4---4---4-------4----|-3---3-------3---3---3-------3----|
D|----------------------------------|----------------------------------|
A|----------------------------------|----------------------------------|
E|----------------------------------|----------------------------------|

e|---------2---------------2--------|---------2--------------------------|
B|---0---0---0---0---0---0---0---0--|---0---0---0---0---0---0----0----0--|
G|-1---1-------1---1---1-------1----|-----------------6---6---11---11----|
D|----------------------------------|-4---4-------4----------------------|
A|----------------------------------|------------------------------------|
E|----------------------------------|------------------------------------|

then begin to strum

B
I thought with a month of apart
F#
Together would find us an opening
E
And moonlight would provide the spark
F#
And that I would stumble across the key
B
Or break down the door to your heart
F#
Forever could see us not you and me
E
And youd help me out of the dark
F#
And Id give my heart as an offering

Pre-chorus

Chorus

Bridge/verse3 (has the same chords as verses)
And I will always remember you as you are right now to me
And I will always remember now


& that's all (:
anything else just comment!



http://www.myspace.com/crysnoriega
Tap to rate this tab
# A B C D E F G H I J K L M N O P Q R S T U V W X Y Z