Song name
# A B C D E F G H I J K L M N O P Q R S T U V W X Y Z

Mayday Parade - If You Cant Live Without Me Why Arent You Dead Yet tab

-------------------------------------------------------------------------------
    If You Can't Live Without Me, Why Aren't You Dead Yet? - Mayday Parade
-------------------------------------------------------------------------------
Tabbed by: Raphael Bastek
Email: raf_gpm@yahoo.com

Tuning: Drop D

|INTRO|
0:05-0:18

-Intro Pt.1

--Guitar One

E|-------------------------------------------------------------|
B|-------------------------------------------------------------|
G|----------8----------8h10p8/6---------8----------8h10p8/6----|
D|-----11-8-------11p8--------------8-6--------8-6-------------|
A|-------------------------------------------------------------|
D|-------------------------------------------------------------|

--Guitar Two

E|-------------------------------------------------------------|
B|-------------------------------------------------------------|
G|-------------------------------------------------------------|
D|-8-8--------8-8------6-6------6-6-------6-6------4-4---------|
A|-8-8--------8-8------6-6------6-6-------6-6------4-4---------|
D|-8-8--------8-8------6-6------6-6-------6-6------4-4---------|

-Intro Pt.2

--Guitar One

E|-----------------------------------------------------------|
B|-----------------------------------------------------------|
G|----------8----------8h10p8/6---------8---------8h10p8/6---|
D|-----11-8-------11p8--------------8-6-------8-6------------|
A|-----------------------------------------------------------|
D|-8-8--------------------------6-6--------------------------|

--Guitar Two

E|-----------------------------------------------------------|
B|-----------------------------------------------------------|
G|-----------------------------------------------------------|
D|-888888888888-6666-444444444444-666-8~---------------------|
A|-888888888888-6666-444444444444-666-8~---------------------|
D|-888888888888-6666-444444444444-666-8~---------------------|

I've only got the intro so far but I'll work on figuring out the rest of the song later.
Tap to rate this tab
# A B C D E F G H I J K L M N O P Q R S T U V W X Y Z