Song name
# A B C D E F G H I J K L M N O P Q R S T U V W X Y Z

Mayday Parade - Kids In Love tab

-------------------------------------------------------------------------------
			   Kids in love  Mayday Parade
-------------------------------------------------------------------------------
Tabbed by: 
Email:

Tuning: drop D

Guitar 2 part


Intro:                                              (figure out strumming)
e|-6---6---6-4-4-3-3----------------------------------------------------------|
B|---4---4----4---4--6-6-6-66-6-3-3-3-33-3-1-11-3-33-4444444444444444-66666666|
G|----------------------------------------------------------------------------|
D|----------------------------------------------------------------------------|
A|----------------------------------------------------------------------------|
E|----------------------------------------------------------------------------|

Verse: 2X
e|-66666666-4444-3333--------------------------------------------------------|
B|--------------------66666666-33333333-1111-3333-4444444444444444-66666666--|
G|---------------------------------------------------------------------------|
D|---------------------------------------------------------------------------|
A|---------------------------------------------------------------------------|
E|---------------------------------------------------------------------------|

Pre Chorus: 4X ( That is the most I could hear )
e|---------------------------------------------------------------------------|
B|-11-(0)-11-(0)-11-(0)-11-(0)-9-(0)-9-(0)-9-(0)-9---------------------------|
G|---------------------------------------------------------------------------|
D|---------------------------------------------------------------------------|
A|---------------------------------------------------------------------------|
E|---------------------------------------------------------------------------|

Chorus:
e|---------------------------------------------------------------------------|
B|---------------------------------------------------------------------------|
G|-1515151515151515-13131313-12121212-1010101010101010-77777777-5555-7777----|
D|--x-x-x-x-x-x-x-x-x-x-x-x--x-x-x-x--x-x-x-x-x-x-x-x--xxxxxxxx-xxxx-xxxx----|
A|-1313131313131313-11111111-10101010-8-8-8-8-8-8-8-8--55555555-3333-5555----|
E|---------------------------------------------------------------------------|

e|---------------------------------------------------------------------------|
B|---------------------------------------------------------------------------|
G|-8888888888888888-1010101010101010-----------------------------------------|
D|-xxxxxxxxxxxxxxxx-x-x-x-x-x-x-x-x------------------------------------------|
A|-6666666666666666-8-8-8-8-8-8-8-8------------------------------------------|
E|---------------------------------------------------------------------------|

Verse:
Pre Chorus:
Chorus:
Bridge: (Is the same as Rhythm Guitar or follow the piano)Play till next chorus.

e|---------------------------------------------------------------------------|
B|---------------------------------------------------------------------------|
G|-88---88-------------------------------------------------------------------|
D|-66-6-66-8-----------------------------------------------------------------|
A|-66-6-66-8-----------------------------------------------------------------|
E|----6----8-----------------------------------------------------------------|


| /  slide up
| \  slide down
| h  hammer-on
| p  pull-off
| ~  vibrato
| +  harmonic
| x  Mute note
===============================================================================
Tap to rate this tab
# A B C D E F G H I J K L M N O P Q R S T U V W X Y Z