Song name
# A B C D E F G H I J K L M N O P Q R S T U V W X Y Z

Mayday Parade - Last Something That Meant Anything tab

e-------------------------------------------------|
B-3-----3-----1-----1-----0-----0-----------------|
G----0-----0-----0-----0-----0-----0~-------------|
D-------------------------------------7--5--4--0--|
A-------------------------------------------------|
E-------------------------------------------------|

e-------------------------------------------------|
B------------------------------------0------------|
G-------0-----------0-------------0-----0---------|
D----0-----0-----0-----0-----0h4-----------0~-----|
A-7-----------7-----------5-----------------------|
E-------------------------------------------------|
Tap to rate this tab
# A B C D E F G H I J K L M N O P Q R S T U V W X Y Z