Song name
# A B C D E F G H I J K L M N O P Q R S T U V W X Y Z

Mayday Parade - Save Your Heart tab

k figured this out by ear so might be a bit dodgy
but i think it sounds right. (:

This is half of the song on the first guitar,
i'll put up the power chords on another tab (:

Guitar 1

E--------------------------------------|
B--------------------------------------|
G--------0---0----------0---0---0------|
D--3-1-3---3---3-1----3---3---3---3-1--|
A--------------------------------------|
E--------------------------------------|

E----------------------------------------|
B----------------------------------------|
G----0---0---0--------------0---0--------|
D--3---3---3---3-1----3-1-3---3---3-1-1~-|
A----------------------------------------|
E----------------------------------------|

The faintly during 0:33 - 0:38

E--6/8--6----6/8--6---6----6/8--6----6/8--6---6-|
B-----------------------------------------------|
G-----------------------------------------------|
D-----------------------------------------------|
A-----------------------------------------------|
E-----------------------------------------------|


Chorus

E--------------------------------------|
B--------------------------------------|
G--------0---0----------0---0---0------|
D--3-1-3---3---3-1----3---3---3---3-1--|
A--------------------------------------|
E--------------------------------------|

E---------------------------------------|
B---------------------------------------|    x2
G----0---0---0--------------0---0-------|
D--3---3---3---3-1----3-1-3---3---3-1-1-|
A---------------------------------------|
E---------------------------------------|

1:28 - 1:35

E--6/8--6----6/8--6---6----6/8--6----6/8--6---6-|
B-----------------------------------------------|
G-----------------------------------------------|
D-----------------------------------------------|
A-----------------------------------------------|
E-----------------------------------------------|

Chorus

E--------------------------------------|
B--------------------------------------|
G--------0---0----------0---0---0------|
D--3-1-3---3---3-1----3---3---3---3-1--|
A--------------------------------------|
E--------------------------------------|

E---------------------------------------|
B---------------------------------------|    x2
G----0---0---0--------------0---0-------|
D--3---3---3---3-1----3-1-3---3---3-1-1-|
A---------------------------------------|
E---------------------------------------|


E-------------------------------------|
B---------8--8---------8--8--8--------|
G--10-8-10-10-10-8---10-10-10-10-8----|
D-------------------------------------|
A-------------------------------------|
E-------------------------------------|

E-------------------------------------|
B----8--8--8--------------8--8--------|     x2
G--10-10-10-10-8---10-8-10-10-10-8----|
D-------------------------------------|
A-------------------------------------|
E-------------------------------------|


During  2:24 - 3:08

E-----6----6----6----6----6----6----6----6-----8-----8-----8-----8-|
B----6----6----6----6----6----6----6----6-----8-----8-----8-----8--|
G---8----8----8----8----7----7----7----7-----8-----8-----8-----8---|
D--8----8----8----8----8----8----8----8----10----10----10----10----|
A------------------------------------------------------------------|
E------------------------------------------------------------------|

E------6------6------6------6-|
B-----------------------------|       x2
G---8-5----8-5----8-5----8-5--|
D--6------6------6------6-----|
A-----------------------------|
E-----------------------------|


Chorus


E-------------------------------------|
B---------8--8---------8--8--8--------|
G--10-8-10-10-10-8---10-10-10-10-8----|
D-------------------------------------|
A-------------------------------------|
E-------------------------------------|

E-------------------------------------|
B----8--8--8--------------8--8--------|     x2
G--10-10-10-10-8---10-8-10-10-10-8----|
D-------------------------------------|
A-------------------------------------|
E-------------------------------------|

there's some solo at the end but cbf to do it
Tap to rate this tab
 
# A B C D E F G H I J K L M N O P Q R S T U V W X Y Z