Song name
# A B C D E F G H I J K L M N O P Q R S T U V W X Y Z

Mayday Parade - I Swear This Time I Mean It tab

alright i decided to put up another version of this song in a tab,
i found some parts that some people didn't catch so i made my own,
this is my very first tab so i picked an easy one,
i didn't put the strumming pattern cuz it would have been too much work and i'm lazy
but, it's really not that hard to figure out the strumming to this song
it's real easy,

any mistakes please let me know, thanks

tru_stunzi@yahoo.com


Intro/verse:

(3 times)
--3---3---3---3---3---2---3---3---3--|
--3---3---3---3---3---3---3---3---3--|
--0---2---0---0---0---2---2---0---0--|
--0---0---2---0---2---0---0---2---0--|
--x---0---3---x---2---x---x---3---x--|
--3---2---x---3---0---x---x---x---3--|

Pre-chorus:

--3---3---2---3---3---3---2---3--|
--3---3---3---3---3---3---3---3--|
--0---2---2---2---0---0---2---2--|
--2---0---0---0---2---2---0---0--|
--3---x---x---x---3---2---x---x--|
--x---x---x---x---x---0---x---x--|

Chorus:

(2 times)
--3---3---3---3---2---3--|
--3---3---3---3---3---3--|
--0---2---0---0---2---2--|
--0---0---2---2---0---0--|
--x---0---3---2---x---x--|
--3---2---x---0---x---x--|

Little guitar lead:

-----------------3-2-----------------------------------------------------3---3/5\3------|
-------3-------3-----3--------3--------------------------------------------3------------|
--4h5-----4h5------------4h5-----5-4-----2h4p2-0-----2h4-2-0-0--2h4-2-------------------|
----------------------------------------------------------------------------------------|
----------------------------------------------------------------------------------------|
----------------------------------------------------------------------------------------|

This next part is the same exact thing, I put it in order for you just to make it less 
or whatever:

--Repeat verse- 3 times

--Repeat pre-chorus

--Repeat chorus- 2 times

Bridge:

(2 times)
--3---3---2---3--|
--3---3---3---3--|
--0---2---2---2--|
--2---0---0---0--|
--3---x---x---x--|
--x---x---x---x--|


(picking part):

(2 times)
--3---------3---------------------3---------------------3-----3---2---3---|
--3-----------3---------------------3--------------------3----3---3---3---|
--0----0--------0---0---------2-------2---0--------0------0---0---2---2---|
--0------0--------0---------0---0-------0--------2---2--------2---0---0---|
--x--------------------------------------------3--------------2---x---x---|
--3-----------------------2-----------------------------------0---x---x---|

Chorus:

(2 times)
--3---3---3---3---2---3--|
--3---3---3---3---3---3--|
--0---2---0---0---2---2--|
--0---0---2---2---0---0--|
--x---0---3---2---x---x--|
--3---2---x---0---x---x--|
Tap to rate this tab
# A B C D E F G H I J K L M N O P Q R S T U V W X Y Z