Song name
# A B C D E F G H I J K L M N O P Q R S T U V W X Y Z

Mayday Parade - Miserable At Best tab

Mayday Parade - Miserable At Best
Standard E Tuning

So out of sheer boredom, I decided to tab this song. So really, it's the chords and the right
hand of the song played on piano. There are some left hand/bass clef notes from the
in there so it may sound a bit weird or feel a bit weird playing. All in all, it should 
alright to play once you get the hang of it. Hope you enjoy it!


  D                  D        A         Bm                A
e|-5---5---5---5---|-5---5------------|-----------------|-------------------|
B|-7---7---7---7---|-7---7----5---5---|-7---7---7---7---|-5---5---5---5-----|
G|---7---7---7---7-|---7---7--6---6-7-|-7---7---7---7---|-6---6---6---6---7-|
D|-----------------|------------7-----|---9---9---9---9-|---7---7---7---7---|
A|-----------------|------------------|-----------------|-------------------|
E|-----------------|------------------|-----------------|-------------------|
  Katie donít cry...                    hardest...        part...

  D                  D        A         Bm                A
e|-5---5---5---5---|-5---5------------|-----------------|-------------------|
B|-7---7---7---7---|-7---7----5---5---|-7---7---7---7---|-5---5---5---5-----|
G|---7---7---7---7-|---7---7--6---6-7-|-7---7---7---7---|-6---6---6---6---7-|
D|-----------------|------------7-----|---9---9---9---9-|---7---7---7---7---|
A|-----------------|------------------|-----------------|-------------------|
E|-----------------|------------------|-----------------|-------------------|
  Go of the nights...                   calling...        haunting...

  G           A        Bm      D           G          A         Bm        D
e|-------------------|---------5---5-----|--------------------|-----------5~------|
B|-----------5---5---|-7---7---7---7-----|------------5---5---|-7---7-----7~------|
G|-7----7----6---6---|-7---7-----7---7---|--7----7----6---6---|-7---7-----7~------|
D|-9----9------7---7-|---9---9-----------|--9----9------7---7-|---9---9-----------|
A|---10---10---------|-------------------|----10---10---------|-------------------|
E|-------------------|-------------------|--------------------|-------------------|
  To your eyes...      quite as bright...  look to the sky...   but I want it...

  D                  D        A         Bm                A
e|-5---5---5---5---|-5---5------------|-----------------|-------------------|
B|-7---7---7---7---|-7---7----5---5---|-7---7---7---7---|-5---5---5---5-----|
G|---7---7---7---7-|---7---7--6---6-7-|-7---7---7---7---|-6---6---6---6-7---|
D|-----------------|------------7-----|---9---9---9---9-|---7---7---7-------|
A|-----------------|------------------|-----------------|-------------------|
E|-----------------|------------------|-----------------|-------------------|
  Letís not pretend...                  youíre probably...

  G                      A       A#         Bm                A
e|---------------------|------------------|-----------------|-------------------|
B|---------------------|-5---5---5---5----|-7---7---7---7---|-5---5---5---5-----|
G|-7----7----7----7----|-6---6---6---6----|-7---7---7---7---|-6---6---6---6---7-|
D|-9----9----9----9----|---7---7---8---8--|---9---9---9---9-|---7---7---7---7---|
A|---10---10---10---10-|------------------|-----------------|-------------------|
E|---------------------|------------------|-----------------|-------------------|
  I bet he gets...       walk the floor...  dance...          yes...

  G           D  G D    A        A#        Bm                A
e|--------------------|------------------|---------7---7---|---------5---5-----|
B|--------------------|-5-----5--5---5---|-7---7---7---7---|-5---5---5---5-----|
G|-7----7-----7--7-7--|-6-----6--6---6---|-7---7---7---7---|-6---6---6---6---7-|
D|-9----9-----7--9-7--|-7-----7----8---8-|---9---9---9---9-|---7---7---7---7---|
A|---10---10--9-10-9--|-----7------------|-----------------|-------------------|
E|--------------------|---5--------------|-----------------|-------------------|
  Words were never......                   guess...          guess...

  Em            D        G         A
e|---------------------|-------------------|
B|---------------------|-----------5---5---|
G|-4----4------7---7---|-7----7----6---6-7-|
D|-5----5------7---7---|-9----9------7-----|
A|---7----7------9---9-|---10---10---------|
E|---------------------|-------------------|
  I can live without...  without you...

  D                  D                 Bm                A
e|-5---5---5---5---|-5---5---5-------|-----------------|-------------------|
B|-7---7---7---7---|-7---7---7---7-8-|-7---7---7---7---|-5---5---5---5-----|
G|---7---7---7---7-|---7---7---7-----|-7---7---7---7---|-6---6---6---6---7-|
D|-----------------|-----------------|---9---9---9---9-|---7---7---7---7---|
A|-----------------|-----------------|-----------------|-------------------|
E|-----------------|-----------------|-----------------|-------------------|
  Best...            find...           way...            give...

  D                  A                 Bm                A
e|-5---5---5---5---|-----------------|-----------------|-------------------|
B|-7---7---7---7---|-5---5---5---5---|-7---7---7---7---|-5---5---5---5-----|
G|---7---7---7---7-|-6---6---6---6---|-7---7---7---7---|-6---6---6---6---7-|
D|-----------------|---7---7---7---7-|---9---9---9---9-|---7---7---7---7---|
A|-----------------|-----------------|-----------------|-------------------|
E|-----------------|-----------------|-----------------|-------------------|
  Take...            home...           away...           living...

  G                      A       A#         Bm                A
e|---------------------|------------------|-----------------|----------------|
B|---------------------|-5---5---5---5----|-7---7---7---7---|-5~-------------|
G|-7----7----7----7----|-6---6---6---6----|-7---7---7---7---|-6~-------------|
D|-9----9----9----9----|---7---7---8---8--|---9---9---9---9-|-7~-------------|
A|---10---10---10---10-|------------------|-----------------|----------------|
E|---------------------|------------------|-----------------|----------------|
  Stay...                something...       yet...            need it...


  D                  D        A         Bm                A
e|-5---5---5---5---|-5---5------------|-----------------|-------------------|
B|-7---7---7---7---|-7---7----5---5---|-7---7---7---7---|-5---5---5---5-----|
G|---7---7---7---7-|---7---7--6---6-7-|-7---7---7---7---|-6---6---6---6-7---|
D|-----------------|------------7-----|---9---9---9---9-|---7---7---7-------|
A|-----------------|------------------|-----------------|-------------------|
E|-----------------|------------------|-----------------|-------------------|
  Letís not pretend...                  youíre probably...

  G                      A       A#         Bm                A
e|---------------------|------------------|-----------------|-------------------|
B|---------------------|-5---5---5---5----|-7---7---7---7---|-5---5---5---5-----|
G|-7----7----7----7----|-6---6---6---6----|-7---7---7---7---|-6---6---6---6---7-|
D|-9----9----9----9----|---7---7---8---8--|---9---9---9---9-|---7---7---7---7---|
A|---10---10---10---10-|------------------|-----------------|-------------------|
E|---------------------|------------------|-----------------|-------------------|
  I bet he gets...       walk the floor...  dance...          yes...

  G           D  G D    A        A#        Bm                A
e|--------------------|------------------|---------7---7---|---------5---5-----|
B|--------------------|-5-----5--5---5---|-7---7---7---7---|-5---5---5---5-----|
G|-7----7-----7--7-7--|-6-----6--6---6---|-7---7---7---7---|-6---6---6---6---7-|
D|-9----9-----7--9-7--|-7-----7----8---8-|---9---9---9---9-|---7---7---7---7---|
A|---10---10--9-10-9--|-----7------------|-----------------|-------------------|
E|--------------------|---5--------------|-----------------|-------------------|
  Words were never......                   guess...          guess...

Em            D        G         A
e|---------------------|-------------------|
B|---------------------|-----------5---5---|
G|-4----4------7---7---|-7----7----6---6-7-|
D|-5----5------7---7---|-9----9------7-----|
A|---7----7------9---9-|---10---10---------|
E|---------------------|-------------------|
  I can live without...  without you...

  D           G             A       D          Bm              A
e|------------------------|---------5---5---|----------7-9-10-|-10-----12-10-9--------|
B|------------------------|-5---5---7---7---|-7---7-----0-0---|-----------------------|
G|-7---7------7----7------|-6---6-----7---7-|-7---7----4-6--7-|--7----------------6-7-|
D|-7---7---7--9----9----9-|---7---7---------|---9---9---------|------7-----------7----|
A|---9---9------10---10---|-----------------|-----------------|-----7-----------7-----|
E|------------------------|-----------------|-----------------|----5-----------5------|
  Best...

  D        G           A       D         Bm                A
e|--------------------|---------5---5---|----------7-9-10-|-10-----12-10-9--------|
B|--------------------|-5---5---7---7---|-7---7-----0-0---|-----------------------|
G|-7---7----7----7----|-6---6-----7---7-|-7---7----4-6--7-|--7----------------6-7-|
D|-7---7----9----9----|---7---7---------|---9---9---------|------7-----------7----|
A|---9---9----10---10-|-----------------|-----------------|-----7-----------7-----|
E|--------------------|-----------------|-----------------|----5-----------5------|
  La da da...

  D        G           A       D         Bm                A
e|--------------------|---------5---5---|-----------------|-------------------|
B|--------------------|-5---5---7---7---|-7---7---7---7---|-5---5---5---5-----|
G|-7---7----7----7----|-6---6-----7---7-|-7---7---7---7---|-6---6---6---6---6-|
D|-7---7----9----9----|---7---7---------|---9---9---9---9-|---7---7---7---7---|
A|---9---9----10---10-|-----------------|-----------------|-------------------|
E|--------------------|-----------------|-----------------|-------------------|
  And thisíll be...    week...           speak...          sleep...

  D        G           A       D         Bm                A
e|--------------------|---------5---5---|-----------------|-------------------|
B|--------------------|-5---5---7---7---|-7---7---7---7---|-5---5---5---5-----|
G|-7---7----7----7----|-6---6-----7---7-|-7---7---7---7---|-6---6---6---6---6-|
D|-7---7----9----9----|---7---7---------|---9---9---9---9-|---7---7---7---7---|
A|---9---9----10---10-|-----------------|-----------------|-------------------|
E|--------------------|-----------------|-----------------|-------------------|
  I got the point...   we both know...   miss the lips...  fly...

 D                  D        A           Bm                  A
e|-5---5---5---5---|-5---5--------------|-------------------|-------------------|
B|-7---7---7---7---|-7---7----5---5-----|-7---7---7---7-----|-5---5---5---5-----|
G|---7---7---7---7-|---7---7--6---6---7-|-7---7---7---7---7-|-6---6---6---6---7-|
D|-----------------|------------7---7---|---9---9---9---9---|---7---7---7---7---|
A|-----------------|--------------------|-------------------|-------------------|
E|-----------------|--------------------|-------------------|-------------------|
  Letís not pretend...                  youíre probably...

  G                      A       A#         Bm                A
e|---------------------|------------------|-----------------|-------------------|
B|---------------------|-5---5---5---5----|-7---7---7---7---|-5---5---5---5-----|
G|-7----7----7----7----|-6---6---6---6----|-7---7---7---7---|-6---6---6---6---7-|
D|-9----9----9----9----|---7---7---8---8--|---9---9---9---9-|---7---7---7---7---|
A|---10---10---10---10-|------------------|-----------------|-------------------|
E|---------------------|------------------|-----------------|-------------------|
  I bet he gets...       walk the floor...  dance...          yes...

  G           D  G D    A        A#        Bm                A
e|--------------------|------------------|-----------------|-------------------|
B|--------------------|-5-----5--5---5---|-7---7---7---7---|-5---5---5---5-----|
G|-7----7-----7--7-7--|-6-----6--6---6---|-7---7---7---7---|-6---6---6---6---7-|
D|-9----9-----7--9-7--|-7-----7----8---8-|---9---9---9---9-|---7---7---7---7---|
A|---10---10--9-10-9--|-----7------------|-----------------|-------------------|
E|--------------------|---5--------------|-----------------|-------------------|
  Words were never......                  guess...          guess...

Em            D        G         A
e|-----------------------|------------------------|
B|-----------------------|--------------5---5-----|
G|-4----4------7---7-----|-7----7-------6---6---7-|
D|-5----5------7---7---7-|-9----9----9----7---7---|
A|---7----7------9---9---|---10---10--------------|
E|-----------------------|------------------------|
  I can live without...  without you...

  Em          D           G         A
e|-----------------------|-------------------|
B|-----------------------|-----------5---5---|
G|-4----4------7---7-----|-7----7----6---6-7-|
D|-5----5---5--7---7---7-|-9----9------7-----|
A|---7----7------9---9---|---10---10---------|
E|-----------------------|-------------------|
  I can live without...      without you...


  Em            D        G         A
e|---------------------|---------------------|
B|---------------------|-------------5---5---|
G|-4----4------7---7---|-7----7------6---6---|
D|-5----5------7---7---|-9----9----9---7---7-|
A|---7----7------9---9-|---10---10-----------|
E|---------------------|---------------------|
  I can live without...  without you...

  D
e|--5~--|
B|--7~--|
G|--7~--|
D|------|
A|------|
E|------|
  Best...
Tap to rate this tab
 
# A B C D E F G H I J K L M N O P Q R S T U V W X Y Z