Song name
# A B C D E F G H I J K L M N O P Q R S T U V W X Y Z

Mayday Parade - Miserable At Best tab

I loved this tab but i didn't like how it was laid out so i fixed it.

Verse1

e|----------------------------------------------------------------------|
B|----------------------------------------------------------------------|
G|-------7-------7--------7----------------4-------4--------------------|
D|-----7---7---7----7---7---7-----7------4---4---4---4-----7-------7~---|
A|---5-------5--------5---------7---7--2-------2---------7---7---7------|
E|------------------------ ---5------------------------5-------5--------|
Katie don’t cry I know…………………

Gr.1
e|-----------------------------------------------------------------------|
B|-----------------------------------------------------------------------|
G|-------7-------7-------7-----------------4-------4---------------------|
D|-----7---7---7---7---7---7------7------4---4---4---4------7-------7----|
A|---5-------5-------5----------7---7--2-------2----------7---7---7---7--|
E|----------------------------5-------------------------5-------5--------|
Go of the nights we shared…………




Refrain:
Gr.1
e|-------------------------------------------|
B|-------------------------------------------|
G|-----------------------4-------7-----------|
D|------5-------7------4---4---7---7---------|
A|----5---5---7---7--2-------5---------------|
E|--3-------5--------------------------------|
Compared to your eyes……
e|-------------------------------------------|
B|-------------------------------------------|
G|-------------------------4----7~-----------|
D|-------5--------7------4---4- 7~-----------|
A|-----5---5----7---7--2------- 5~-----------|
E|---3--------5------------------------------|
Looked to the sky………



Chorus:
Gr.1
e|----------------------------------------------------------------------|
B|----------------------------------------------------------------------|
G|-------7--------7-------7----------------4-------4--------------------|
D|-----7---7---7----7---7---7-----7------4---4---4---4------7-------7---|
A|---5-------5--------5---------7---7--2-------2----------7---7---7---7-|
E|----------------------------5-------------------------5-------5-------|
Let’s not pretend………………………he's there and

e|----------------------------------------------------------------|
B|----------------------------------------------------------------|
G|--------------------------------------4-------4-----------------|
D|-----5-------5-------7-------7------4---4---4---4----7------7---|
A|---5---5---5---5---7---7---7---7--2-------2---------7--7--7---7-|
E|-3-------3-------5-------5-------------------------5-----5------|
I’ll bet he gets the nerve………………………yes

e|-----------------------------------------------------------------|
B|-----------------------------------------------------------------|
G|-----------------------------------------------------------------|
D|-----5--------------7-------7-------9-------9-------7------7-----|
A|---5---5---------7---7---7---7---9---9---9---9---7---7--7---7---|
E|-3-------3-----5-------5-------7-------7-------5-------5--------|
Because these words were never easier…………

e|-------------------------------------------------|
B|-------------------------------------------------|
G|----------------7------------------------7-------|
D|-------5------7---7-----5-------7------7---7-----|
A|-----5---5--5---------5---5---7---7--5-----------|
E|---3----------------3-------5--------------------|

Verse2:
Gr.1
e|---------------------------------------------------------------|
B|---------------------------------------------------------------|
G|-----7-------7-------7------7-------4------4-------------------|
D|---7---7---7---7---7---7--7---7---4---4--4---4----7-------7----|
A|-5-------5-------5-------5------2-------2-------7---7---7---7--|
E|-----------------------------------------------5------5--------|


e|------------------------------------------------------------------|
B|------------------------------------------------------------------|
G|-----7-------7------------------------4-------4-------------------|
D|---7---7---7---7-----7-------7------4---4---4---4-----7-------7---|
A|-5-------5---------7---7---7---7--2-------2---------7---7---7---7-|
E|-----------------5-------5------------------------5-------5-------|


e|------------------------------------------------------------------|
B|------------------------------------------------------------------|
G|------------------------------------------------------------------|
D|-----5-------5------7-------7-------4-------4----7~---------------|
A|---5---5---5---5--7---7---7---7---4---4---4---4--7~---------------|
E|-3-------3-------5------5-------2-------2--------5~---------------


Chorus:
Gr.1
e|----------------------------------------------------------------------|
B|----------------------------------------------------------------------|
G|-------7--------7-------7----------------4-------4--------------------|
D|-----7---7---7----7---7---7-----7------4---4---4---4------7-------7---|
A|---5-------5--------5---------7---7--2-------2----------7---7---7---7-|
E|----------------------------5-------------------------5-------5-------|
Let’s not pretend………………………he there and


e|----------------------------------------------------------------|
B|----------------------------------------------------------------|
G|--------------------------------------4-------4-----------------|
D|-----5-------5-------7-------7------4---4---4---4----7------7---|
A|---5---5---5---5---7---7---7---7--2-------2---------7--7--7---7-|
E|-3-------3-------5-------5-------------------------5-----5------|
I’ll bet he gets the nerve………………………yes

e|-----------------------------------------------------------------|
B|-----------------------------------------------------------------|
G|-----------------------------------------------------------------|
D|-----5--------------7-------7-------9-------9-------7------7-----|
A|---5---5---5------7---7---7---7---9---9---9---9---7---7--7---7---|
E|-3-------3---3--5-------5-------7-------7-------5-------5--------|
Because these words were never easier…………


Gr.1
e|-------------------------------------------------|
B|-------------------------------------------------|
G|----------------7------------------------7-------|
D|-------5------7---7-----5-------7------7---7-----|
A|-----5---5--5---------5---5---7---7--5-----------|
E|---3----------------3-------5--------------------


Bridge:
e|------------------------------------------------------------------|
B|------------------------------------------------------------------|
G|-----7--------------------------------4-------4-------------------|
D|---7---7---- 5-------7-------4------4---4---4---4-----7------7----|2x
A|-5---------5---5---7---7---4---4--2-------2---------7---7--7---7--|
E|---------3-------5-------2------------------------5-------5-------|



Chorus:
Gr.1
e|----------------------------------------------------------------------|
B|----------------------------------------------------------------------|
G|-------7--------7-------7----------------4-------4--------------------|
D|-----7---7---7----7---7---7-----7------4---4---4---4------7-------7---|
A|---5-------5--------5---------7---7--2-------2----------7---7---7---7-|
E|----------------------------5-------------------------5-------5-------|
Let’s not pretend………………………he there and


Gr1.
e|----------------------------------------------------------------|
B|----------------------------------------------------------------|
G|--------------------------------------4-------4-----------------|
D|-----5-------5-------7-------7------4---4---4---4----7------7---|
A|---5---5---5---5---7---7---7---7--2-------2---------7--7--7---7-|
E|-3-------3-------5-------5-------------------------5-----5------|
I’ll bet he gets the nerve………………………yes


e|-----------------------------------------------------------------|
B|-----------------------------------------------------------------|
G|-----------------------------------------------------------------|
D|-----5--------------7-------7-------9-------9-------7------7-----|
A|---5---5---5------7---7---7---7---9---9---9---9---7---7--7---7---|
E|-3-------3---3--5-------5-------7-------7-------5-------5--------|
Because these words were never easier…………


Gr.1
e|-------------------------------------------------|
B|-------------------------------------------------|
G|----------------7------------------------7-------|
D|-------5------7---7-----5-------7------7---7-----|
A|-----5---5--5---------5---5---7---7--5-----------|
E|---3----------------3-------5--------------------|   x2

Tap to rate this tab
# A B C D E F G H I J K L M N O P Q R S T U V W X Y Z