Mayday Parade - Still Breathing tab

-------------------------------------------------------------------------------
			     Still Breathing - Mayday Parade
-------------------------------------------------------------------------------
Tabbed by: the_ghostman321
thought i would show the correct way to play the intro, i'll come out with the 
rest soon....but until then enjoy!!

Tuning: half-step down

eb|---------------------------------------------------------------------------|
Bb|---------------------------------------------------------------------------|
Gb|-----------------7*--------------------------------------------------------|
Db|------------0------------------------7----5p4------------------------------|
Ab|-------9--------------------5----------------------------------------------|
Eb|---7---------------------3-----3-------------------------------------------|

eb|---------------------------------------------------------------------------|
Bb|---------------------------------------------------------------------------|
Gb|---------------------------------------------------------------------------|
Db|-------0---------------0---------------------------------------------------|
Ab|--------------7----------------9h10p9--7h9---------------------------------|
Eb|----5-----5---------5-----5------------------------------------------------|


Tap to rate this tab
 
# A B C D E F G H I J K L M N O P Q R S T U V W X Y Z