Song name
# A B C D E F G H I J K L M N O P Q R S T U V W X Y Z

Mayday Parade - Still Breathing tab

Band: Mayday Parade
Title: Still Breathing

Tuning:

E
B
G
D
A
E

b - bend

Add me up on Facebook:
applejuice_027@yahoo.com

Comment please...

Intro x2

E|-----------------------------------|
B|-----------------------------------|
G|-----------------------------------|
D|--3------6-4-3-----------3-4-3-1-3-|
A|-1-44--4--------4-6---4------------|
E|------2-2------4-4---4-4-----------|

Verse - ( just like intro OR Bb,G#,F#,G# ) x4

Refrain - F#,G#,Bb,G# (palm mute) then F#,G#

Refrain ( palm mute )


E|---------------------------------|
B|---------------------------------|
G|---------------------------------|
D|-444-666-888-666-444-666-888-666-|
A|-444-666-888-666-444-666-888-666-|
E|-222-444-666-444-222-444-666-444-|

then


E|---------|
B|---------|
G|---------|
D|-444-666-|
A|-444-666-|
E|-222-444-|

Chorus - ( C#,G#,Bb,F#,G#,C#,G#,Bb then F#,G#,F#,G#,C# )

E|-13-13-13-13-11-11-11-11-9-9-9-9-------------|
B|---------------------------------13-13-13-13-|
G|---------------------------------------------|
D|---------------------------------------------|    X3
A|---------------------------------------------|
E|---------------------------------------------|

E|-----------------13-13-13-13-13-13-13-13-13-13-13-13-13-13-|
B|-----------------------------------------------------------|
G|-----------------------------------------------------------|
D|-444-666-666-666-------------------------------------------|
A|-444-666-444-666-------------------------------------------|
E|-222-444-----444-------------------------------------------|

E|-------------------|
B|-------------------|
G|-------------------|
D|-444-666-444-666-6-|
A|-444-666-444-666-4-|
E|-222-444-222-444---|

( Repeat Intro x3 )

( Repeat Refrain )

( Repeat Chorus )

Bridge x2

E|-9-9-9-9-9-9-9-9-8-8-8-8-9-9-8-8----|
B|--9-9-9-9-9-9-9-9-9-9-9-9-9-9-9-9---|
G|------------------------------------|
D|------------------------------------|
A|------------------------------------|
E|------------------------------------|

Solo

E|---------------------------------------11-9-8----6-8-9-9-9-9-9-9-9-|
B|-9b-6-7-9--6-7-6--------7-9-6--9b-6-7-9--9-9--7-9------------------|
G|----------------6-8--6-8-------------------------------------------|
D|-------------------------------------------------------------------|
A|-------------------------------------------------------------------|
E|-------------------------------------------------------------------|

then

E|-------|
B|-------|
G|-------|
D|-66666-|
A|-44444-|
E|-------|

( Repeat Chorus )

Hope You Enjoy... :)
Tap to rate this tab
 
# A B C D E F G H I J K L M N O P Q R S T U V W X Y Z