Song name
# A B C D E F G H I J K L M N O P Q R S T U V W X Y Z

Mayday Parade - Kids In Love tab

Artist: Mayday Parade
Song: Kids in Love
Album: Anywhere But Here
Tabbed by: gustavoaraujo999@hotmail.com

Im actually pretty satisfied with this tab. enjoy!

[Intro]
e|------------------------------|
B|-11--9-8-6--3-3-1-3-4-4-4-6---| (timing is messed up)
G|------------------------------| (but notes are right)
D|------------------------------|
A|------------------------------|
E|------------------------------|

[Verse x2]
e|-------------------------------------------|
B|-------------------------------------------|
G|-8888-7777-5555-----------8888-------------|
D|-8888-8888-5555-8888-6666-8888-6666-8888---|
A|-6666-5555-3333-8888-6666-6666-6666-8888---|
E|----------------6666-4444------4444-6666---|

[Chorus 1]
e|------------------|-----|-----------|
B|------------------|-----|-----------|
G|-555-----888------|-----|-----------|
D|-555-666-888-888--|-[x3]|-6666-8888-|
A|-333-666-666-888--|-----|-6666-8888-|
E|-----444-----666--|-----|-4444-6666-|
 
[Chorus 2]
e|-----------------------------------------------|
B|-----------------------------------------------|
G|-8888------------------------------------------|
D|-8888-6666-8888-5555--1010-88-6666--6666-8888--|
A|-6666-6666-8888-5555--1010-88-6666--6666-8888--|
E|------4444-6666-3333--8-8--66-4444--4444-6666--|

[Verse x2]

[Chorus 1]

[Chorus 2]

[Interlude]
e|------------------|-----|
B|------------------|-----|
G|-555-----888------|-----|
D|-555-666-888-888--|-[x2]|
A|-333-666-666-888--|-----|
E|-----444-----666--|-----|
 
[Bridge]
e|------------------|-----|-----------|
B|------------------|-----|-----------|
G|-555-----888------|-----|-----------|
D|-555-666-888-888--|-[x5]|-6666-8888-|
A|-333-666-666-888--|-----|-6666-8888-|
E|-----444-----666--|-----|-4444-6666-|

[Chorus 2]
e|-------------------------------------------|
B|-------------------------------------------|
G|-88~---------------------------------------|
D|-88~--66~--88~--55~---10~-8~-6~---6~-8~----|
A|-66~--66~--88~--55~---10~-8~-6~---6~-8~----|
E|------44~--66~--33~---8-~-6~-4~---4~-6~----|

[Chorus 2 x2]

[Outro]
e|------------------|-----|----|
B|------------------|-----|----|
G|-555-----888------|-----|-8~-|
D|-555-666-888-888--|-[x2]|-8~-|
A|-333-666-666-888--|-----|-6~-|
E|-----444-----666--|-----|----|

Tap to rate this tab
 
# A B C D E F G H I J K L M N O P Q R S T U V W X Y Z