Song name
# A B C D E F G H I J K L M N O P Q R S T U V W X Y Z

Mayday Parade - If You Cant Live Without Me Why Arent You Dead Yet tab

OK this is wat i got with this amazing song.
i am not sure if its 100% correct but it sounds good

TUNNING: DROP D

Intro:
E|------------------------------------|
B|------------------------------------|
G|------------------------------------|
D|8-8----8-8-6-6-4-4---4-4-6-6--------|Repeat 
A|8-8----8-8-6-6-4-4---4-4-6-6--------|
D|8-8----8-8-6-6-4-4---4-4-6-6--------|

Verse 
|--------------------------------------------|
|--------------------------------------------|
|-----------------666666---------------------|
|-888888--4444444-666666--666666-------------|Reapeat
|-888888--4444444-444444--666666-------------|
|-888888--4444444---------666666-------------|
................................
Palm Mute it

That wats holding me back.............
|-----------------------------|
|-----------------------------|
|-----------------------------|
|-4444-6666-8888888888--------|
|-4444-6666-8888888888--------|
|-4444-6666-8888888888--------|

|-----------------------------|
|-----------------------------|
|-----------------------------|
|-4444-6666-8888888888--66666-|
|-4444-6666-8888888888--66666-|
|-4444-6666-8888888888--66666-|

Chorus
|------------------------------|
|------------------------------|
|------------6666--------------|
|-8888--4444-6666-66666--------|FIND out the rythym to it
|-8888--4444-4444-66666--------|
|-8888--4444------66666--------|

Solo(Rythym only)

E|------------------------------------|
B|------------------------------------|
G|------------------------------------|
D|8-8----8-8-6-6-4-4---4-4-6-6--------|Repeat 2
A|8-8----8-8-6-6-4-4---4-4-6-6--------|
D|8-8----8-8-6-6-4-4---4-4-6-6--------|


|--------------------------------------------|
|--------------------------------------------|
|-----------------666666---------------------|
|-888888--4444444-666666--666666-------------|
|-888888--4444444-444444--666666-------------|
|-888888--4444444---------666666-------------|

slow part chorus but no drums)
|-----------------------------|
|-----------------------------|
|-----------------------------|
|-6666--2222--444-----5~~~----|
|-6666--2222--444-----5~~~----|
|-6666--2222--444-----5~~~----|
..............i do... this time

then just repeat chorus
Tap to rate this tab
 
# A B C D E F G H I J K L M N O P Q R S T U V W X Y Z