Song name
# A B C D E F G H I J K L M N O P Q R S T U V W X Y Z

Mayday Parade - You Be The Anchor That Keeps My Feet On The Ground tab

ok here's how it really goes



2 guitar sounds good acoustic
e|------------------------------------------|
b|------------------------------------------|
g|------0----0------0----0---0---0---0------|
d|-----0-0--0-0----0-0--0-0-0-0-0-0-0-0-0--0| repeat until chorus
a|---3----3-----10-----9---7---7---5---5--2-|
e|------------------------------------------|

lead guitar does the same until the "12"

e|-----------------|
b|-----------------|
g|----0------------|
d|---0-0---0-------|
a|--5---/12-0-2-3--|
e|-----------------|

chorus

random picking on same chords
as gtr2
    g  cadd9   em  (dont know it)  g c d
e|--3--------------3--------------------|
b|--3--------------3--------------------|
g|--0--------------0--------------------|
d|--0--2/4-5-------0--------------------|
a|--2--3/5---------2--------------------|
e|--3--------------2--------------------|



e|------3-----------|
b|------1-----------|
g|------------------|repeat until "all alone and in the da-ark"then do either
d|--------2/4-5-----|intro i like the lead one
a|--3-----3/5---5/3-|
e|------------------|


chorus again but switch the em and cadd9 and lead goes...


e|------5------5-------3---2--0------------------0-----0----|
b|-----8-8----8-8-----3-3---3--3-----3-----3----3-3---3-3---|
g|----7---7--7---7---0---0---0--0---0-0---0----2---2-2---2--|
d|---5----5-5-----5-2--------------0---0-0----0-----0-----0-|repeat 2x
a|--------------------------------3-----3-------------------|
e|----------------------------------------------------------|

bridge

cadd9, g, cadd9, g, cadd9,d , b, em then pause, cadd9 then pause


cadd9, em, d/f#, g, d repeat until chorus



same as first chorus and what i do sounds good with the recording


e|--15--------------|
b|----15------------|
g|------16--14------|
d|------------17--14|
a|------------------|
e|------------------|only first time it sounds better if you let it flow.

so that's it mayday parade and a day to remember are my favorite bands and i think its 
cool that me and the singer have the same name XD all is right except maybe the last thing
Tap to rate this tab
 
# A B C D E F G H I J K L M N O P Q R S T U V W X Y Z