Song name
# A B C D E F G H I J K L M N O P Q R S T U V W X Y Z

Mayday Parade - Anywhere But Here tab

Song: Anywhere But Here
Artist: Mayday Parade
Album: Anywhere But Here

Tuning: Dropped D
[I'd be updating this tab really soon for the bridge onwards, tomorrow probably..]
Would like to greet my friends out there, tropang MAMEN.. xD


Intro:
Guitar 1: C#-E-A-B
|---0~-----0~---------------------|
|---0~-----0~---------------------|
|---6~-----1~---------------------|
|---6~-----2~------7~------9~-----| x4
|---4~-----2~------7~------9~-----|
|------------------7~------9~-----|

Guitar 2: comes in at [0:12)
|--------------------------------------------------------------------------------|
|-----------12~------------------------------------12~---------------------------|
|--------13--------13h14p13----13h14p13---------13---------13h14p13----16-14-13--|
|---1111--------14----------14-------------1111---------14----------14-----------|
|--------------------------------------------------------------------------------|
|--------------------------------------------------------------------------------|

|--------------------------------------------------------------------------------|
|-----------12~------------------------------------12~---------------------------|
|--------13--------13h14p13----13h14p13---------13---------13h14p13-------/13~~--|
|---1111--------14----------14-------------1111---------14----------16-14--------|
|--------------------------------------------------------------------------------|
|--------------------------------------------------------------------------------|

verse:
Guitar 1:
|---0~-----0~---------------------|
|---0~-----0~---------------------|
|---6~-----1~---------------------|
|---6~-----2~------7~------9~-----| 
|---4~-----2~------7~------9~-----|
|------------------7~------9~-----|

Pre-Chorus:
|-----------------------|
|-----------------------|
|-----------------------|
|--77-77--7--77-77-8~---|
|--77-77--7--77-77-8~---|
|--77-77--7--77-77-8~---|

Chorus: C#-A-E-B
|---------------------------------------|
|---------------------------------------|
|--66666666-----------------------------|
|--66666666-77777777-22222222-99999999--|
|--44444444-77777777-22222222-99999999--|
|-----------77777777-22222222-99999999--|

|---------------------------------------------|
|---------------------------------------------|
|--66666666-----------------------------------|
|--66666666-77777777-22222222-99999999-888888-|
|--44444444-77777777-22222222-99999999-888888-|
|-----------77777777-22222222-99999999-888888-|

Then Interlude:
Guitar 1: 
|---------------------------------------|
|---------------------------------------|
|--66666666-11111111--------------------|
|--66666666-22222222-77777777-99999999--|
|--44444444-22222222-77777777-99999999--|
|-----------22222222-77777777-99999999--|

Guitar 2:
|--------------------------------------------------------------------------------|
|-----------12~------------------------------------12~---------------------------|
|--------13--------13h14p13----13h14p13---------13---------13h14p13----16-14-13--|
|---1111--------14----------14-------------1111---------14----------14-----------|
|--------------------------------------------------------------------------------|
|--------------------------------------------------------------------------------|

|--------------------------------------------------------------------------------|
|-----------12~------------------------------------12~---------------------------|
|--------13--------13h14p13----13h14p13---------13---------13h14p13-------/13~~--|
|---1111--------14----------14-------------1111---------14----------16-14--------|
|--------------------------------------------------------------------------------|
|--------------------------------------------------------------------------------|

verse 2:

|---0~-----0~---------------------|
|---0~-----0~---------------------|
|---6~-----1~---------------------|
|---6~-----2~------7~------9~-----| 
|---4~-----2~------7~------9~-----|
|------------------7~------9~-----|

Pre-Chorus:
|-----------------------|
|-----------------------|
|-----------------------|
|--77-77--7--77-77-8~---|
|--77-77--7--77-77-8~---|
|--77-77--7--77-77-8~---|

Chorus:
|---------------------------------------|
|---------------------------------------|
|--66666666-----------------------------|
|--66666666-77777777-22222222-99999999--|
|--44444444-77777777-22222222-99999999--|
|-----------77777777-22222222-99999999--|

|---------------------------------------------|
|---------------------------------------------|
|--66666666-----------------------------------|
|--66666666-77777777-22222222-99999999-888888-|
|--44444444-77777777-22222222-99999999-888888-|
|-----------77777777-22222222-99999999-888888-|

Then:
Guitar 1: 
|---------------------------------------|
|---------------------------------------|
|--66666666-11111111--------------------|
|--66666666-22222222-77777777-99999999--|
|--44444444-22222222-77777777-99999999--|
|-----------22222222-77777777-99999999--|

Guitar 2:
|----------------------------------------------------------------|
|-----------12~------------------------------------12~-----------|
|--------13--------13h14p13----13h14p13---------13---------13b\--|
|---1111--------14----------14-------------1111---------14-------|
|----------------------------------------------------------------|
|----------------------------------------------------------------|

Next parts will be posted and updated later..
Tap to rate this tab
 
# A B C D E F G H I J K L M N O P Q R S T U V W X Y Z