Song name
# A B C D E F G H I J K L M N O P Q R S T U V W X Y Z

Mayday Parade - Jamie All Over tab

Song: Jamie All Over [Acoustic]
Artist: Mayday Parade
Album: Valdosta

Tuning: Drop D


Verse:
|--44-44-44~---------------------------------------|
|--44-44-44~---44-44-44~---77-77-77~---77-77-77~---|
|--66-66-66~---55-55-55~---66-66-66~---66-66-66~---|
|--66-66-66~---66-66-66~---44-44-44~---44-44-44~---| x2
|--44-44-44~---33-33-33~---44-44-44~---44-44-44~---|
|--------------------------44-44-44~---44-44-44~---|

Pre-chorus:                     Then end on:
|----------------------|        -----------|
|----------------------|        --9---9----|
|------------9----7----|        --10--10---|
|-10h11-1010---10---10-| x alot --11--11---|
|----------------------|        -----------|
|----------------------|        -----------|

Chorus:
|--44444444----------------------------------------------|
|--44444444-77777777---------------------------77777777--|
|--66666666-66666666-1010101010101010-88888888-66666666--|
|--66666666-44444444-8-8-8-8-8-8-8-8--66666666-44444444--|
|--44444444-44444444-8-8-8-8-8-8-8-8--66666666-44444444--|
|-----------44444444-8-8-8-8-8-8-8-8--66666666-44444444--|

Guitar 2:it sounds quite faint, so its hard to hear..
|-----------------------------------------------------------------------------|
|-----------------------------------------------------------------------------|
|--6--5/6--5/6--5/6/8---6--5/6--5/6-x-66---101010101010-888888-6666666666-88--|
|--x--x-x--x-x--x-x-x---x--x-x--x-x-x-xx---x-x-x-x-x-x--xxxxxx-xxxxxxxxxx-xx--|
|--4--3/4--3/4--3/4/6---4--3/4--3/4-x-44---8-8-8-8-8-8--666666-4444444444-66--|
|-----------------------------------------------------------------------------|

Verse 2:
|--44-44-44~---------------------------------------|
|--44-44-44~---44-44-44~---77-77-77~---77-77-77~---|
|--66-66-66~---55-55-55~---66-66-66~---66-66-66~---|
|--66-66-66~---66-66-66~---44-44-44~---44-44-44~---| x2
|--44-44-44~---33-33-33~---44-44-44~---44-44-44~---|
|--------------------------44-44-44~---44-44-44~---|

Pre-chorus:                     Then:
|----------------------|        -----------|
|----------------------|        --9---9----|
|------------9----7----|        --10--10---|
|-10h11-1010---10---10-| x alot --11--11---|
|----------------------|        -----------|
|----------------------|        -----------|

Chorus:
|--44444444----------------------------------------------|
|--44444444-77777777---------------------------77777777--|
|--66666666-66666666-1010101010101010-88888888-66666666--|
|--66666666-44444444-8-8-8-8-8-8-8-8--66666666-44444444--|
|--44444444-44444444-8-8-8-8-8-8-8-8--66666666-44444444--|
|-----------44444444-8-8-8-8-8-8-8-8--66666666-44444444--|

Guitar 2:this part has some variations, as well as the last chorus. Just figure it out.
|-----------------------------------------------------------------------------|
|-----------------------------------------------------------------------------|
|--6--5/6--5/6--5/6/8---6--5/6--5/6-x-66---101010101010-888888-6666666666-88--|
|--x--x-x--x-x--x-x-x---x--x-x--x-x-x-xx---x-x-x-x-x-x--xxxxxx-xxxxxxxxxx-xx--|
|--4--3/4--3/4--3/4/6---4--3/4--3/4-x-44---8-8-8-8-8-8--666666-4444444444-66--|
|-----------------------------------------------------------------------------|

Bridge:
|------------------------------------------|
|----------------------------77-7~-777-77--|
|--1010-10-1010-10-88-8-88-8-66-6~-666-66--|
|--8-8--8--8-8--8--66-6-66-6-44-4~-444-44--| x2 [with slight variations on the
|--8-8--8--8-8--8--66-6-66-6-44-4~-444-44--|     last chord played...]
|--8-8--8--8-8--8--66-6-66-6-44-4~-444-44--|

(2:39)
|-----------------------------------------------|
|-----------------------7~--7~--7-7~---777777---|
|---6~------66-6~-------6~--6~--6-6~---666666---|
|---6~------66-6~-------4~--4~--4-4~---444444---|
|---4~------44-4~-------4~--4~--4-4~---444444---|
|-----------------------4~--4~--4-4~---444444---|

Chorus:
|--44444444----------------------------------------------|
|--44444444-77777777---------------------------77777777--|
|--66666666-66666666-1010101010101010-88888888-66666666--|
|--66666666-44444444-8-8-8-8-8-8-8-8--66666666-44444444--|
|--44444444-44444444-8-8-8-8-8-8-8-8--66666666-44444444--|
|-----------44444444-8-8-8-8-8-8-8-8--66666666-44444444--|

Guitar 2: it seems to be not playing on the 1st part of this last chorus, just listen.
|------------------------------------------------------------------------------|
|------------------------------------------------------------------------------|
|--6--5/6--5/6--5/6/8---6--5/6--5/6-5/6/8---101010101010-888888-6666666666-88--|
|--x--x-x--x-x--x-x-x---x--x-x--x-x-x-x-x---x-x-x-x-x-x--xxxxxx-xxxxxxxxxx-xx--|
|--4--3/4--3/4--3/4/6---4--3/4--3/4-3/4/6---8-8-8-8-8-8--666666-4444444444-66--|
|------------------------------------------------------------------------------|


End on:
|------------|
|------------|
|-----6~-----|
|-----4~-----|
|-----4~-----|
|-----4~-----|

That's pretty much it.
Tap to rate this tab
 
# A B C D E F G H I J K L M N O P Q R S T U V W X Y Z