Mayday Parade - Id Hate To Be You When People Find Out What This Song Is About tab

I'd hate to be you when People find out what this song is About
by Mayday Parade


Eto yung kinapa ko. :D Na version. Haha Hindi ko alam kung mas madali yung ibang tabs 
ultimate-guitar.com. Pero accurate to! :D Haha 100% :)

Legend:

s - Slide
p - Pull off
h - Hammer
b - Bend

Standard Tuning

Solo:

e|------------|-------------------------------|
B|------------|--------------------7-8-10-8---|
G|------------|--------------6-7-9------------|
D|------------|--------5-7-9------------------|
A|------------|--5-7-9------------------------|
E|---5s12s5---|-------------------------------|

e|----------10------------------10-------10s12--10--|---10-10-8h10p8-7h8p7--|
B|------8--------8----------8--------8--------------|-----------------------|
G|--7-------------------7---------------------------|-----------------------|
D|--------------------------------------------------|-----------------------|
A|--------------------------------------------------|-----------------------|
E|--------------------------------------------------|-----------------------|

--5----5s----------------------------------------------------------10-------|
---------------------------------------------------8-----8-10s12---10-------|
--------------------------------------7-----7---9-----9---------------------|
------------------------5-----5--7s9-----9----------------------------------|
------------------5--7-----7------------------------------------------------|
----------------------------------------------------------------------------|

---10--12s15--14--12-12s15-14-------|----------------------------------------|
------------------------------------|--15b---------------15------------------|
------------------------------------|--------14h16--16-------16p14-12--------|
------------------------------------|----------------------------------------|
------------------------------------|----------------------------------------|
------------------------------------|----------------------------------------|

------------------------------------|---------------------------------------|
----------15--15---------15-15-15s8-|----20-17-15-17-20-17-15---------------|
---14s16-----------14s16------------|----------------------------16-14-12---|
------------------------------------|---------------------------------------|
------------------------------------|---------------------------------------|
------------------------------------|---------------------------------------|

---------------------------------------15---17---17b19-----15h17p15---------|
------------------------------15h17-----------------------------------------|
----------------12--12--------14--------------------------------------------|
-14-12----12-14-------------------------------------------------------------|
-------15-------------------------------------------------------------------|
----------------------------------------------------------------------------|

Goodluck! Have fun, everyone! HAHAHA
By the way, I'm Archie from Miggi's Band. :D Signing out. ;)
Tap to rate this tab
 
# A B C D E F G H I J K L M N O P Q R S T U V W X Y Z