Song name
# A B C D E F G H I J K L M N O P Q R S T U V W X Y Z

Mayday Parade - Bruised And Scarred tab

e ----------------------------------------------------------------------------|
A -15-14-15---------------------------------------15-14-15--------------------|
D ------------14-14/11-11---12-11------11--------------------14-14/11-11---12-|
G --------------------------------14------14-12-------------------------------|
B ----------------------------------------------------------------------------|
E ----------------------------------------------------------------------------|

e ----------------------------------------------------------------------------|
A -------------------15-14-15-----------15-14-15---15/17----------------------|
D 11------11--------------------14---14---------------------------------------|
G ---14------14-12------------------------------------------------------------|
B ----------------------------------------------------------------------------|
E ----------------------------------------------------------------------------|

All other tabs I have seen for the intro of this Mayday song have been wrong,
so I wrote this one.  This tab also shows the rhythm and timing to go along
with the notes.
Cheers.

Tabbed by J. Mahoney
Tap to rate this tab
 
# A B C D E F G H I J K L M N O P Q R S T U V W X Y Z