Guitaretab - guitar tabs
Song name
# A B C D E F G H I J K L M N O P Q R S T U V W X Y Z

Mayday Parade - Still Breathing tab

[Intro:]
d#--------------------------------------------------------------------------------------|
A#--------------------------------------------------------------------------------------|
F#---------------7*  -------------------------------------------------------------------|
C#-----4--0--------------------------------7---4p3------0----2---------0----4h5p4--2h3--|
G#--2--------------------------5----0-----------------0-----0---------0----0------------|
D#------------------------3-------------------------------------------------------------|    2x
						[s'nd time:                        give me...

[Verse:]
d# -------------------------------------------------------------------------------------|
A#--------------------------------------------------------------------------------------|
F#---------------7*  -------------------------------------------------------------------|
C#-----4--0--------------------------------7---4p3------0----2---------0----4h5p4--2h3--|
G#--2--------------------------5----0-----------------0-----0---------0----0------------|
D#------------------------3-------------------------------------------------------------|    4x
          any reason to believe....]
[ Tab from: http://www.guitaretab.com/m/mayday-parade/281413.html ]
[Pre-chorus:]
d#------------------------------------------------------------------|
A# -----------------------------------------------------------------|
F#------------------------------------------------------------------|
C#---5-----------------7--------------------9 ----------------------|
G#---5-----------------7--------------------9 ----------------------|
D#---3-----------------5--------------------7- ---------------------|  2x
      1. Time's racing      [please slow do-wn]...
      2. I'm hopeless      [but hoping,           my lungs won't... ]

d#--------------------------------------------------------------------------------|
A#--------------------------------------------------------------------------------|
F#----------4-4-4-4-4-4-4-4-4-4-4-4-----4-----4-----------------------------------|
C#----------5-5-5-5-5-5-5-5-5-5-5-5-----5-----5 ----------------------------------|
G# ---------5-5-5-5-5-5-5-5-5-5-5-5-----5-----5-----------------------------------|
D#----------3-3-3-3-3-3-3-3-3-3-3-3-----3-----3-----------------------------------|
                    I'm still breathing!

[Chorus: (I play the chords on top, they sound better than their power chord versions)]
             D                                A                        F#m               
  G          A             2x      G         A
e-------------------------------------------------------------------------------||---------------|
A#-----------------------------------------------------------------------------|| ---------------|
F#-----7--------------------6---------------2 ---------------------6  ------- *||-------------6--|
C#-----7--------------------7---------------4-------------5-------7  ------- *||---5---------7 --|
G#-----5--------------------7---------------4-------------5-------7----------||---5---------7----|
D#-----5--------------------5---------------2-------------3-------5----------||---3---------5----|
         1. It's hard to be a    man, ......        can.......       all....     ready... a||
         2. -mazed...           a- lone...              own ...         heart... beating 
         I'm still    breathing!

Reapeat the above in the correct order:
Intro, Verse, Pre-chorus, Chorus, Verse, Pre-chorus, Chorus.
Related for Still Breathing tab
Still Breathing chords by Mayday Parade