Mayday Parade - Still Breathing tab

---------------------------------------------------------------------------
			    STILL BREATHING - Mayday Parade
-------------------------------------------------------------------------------
Tabbed by: Xenesthad
Email: Xenesthad@googlemail.com

Tuning:C#G#C#F#A#D#


                            Intro/Verse

D#|------------------------------------------------------------|
A#|------------------------------------------------------------|
F#|--------7*--------------------------------------------------|
C#|------0-----------7--5\4------------------------------------| (x6)
G#|----9---------5-------------5---7----5---9h10p9-7h9---------|
C#|--9---------5---5---------7---7----7---7--------------------|


                 Pre-chorus

D#|-------------------------------------|
A#|-------------------------------------|
F#|-------------------------------------|
C#|-55555555-77777777-9999999999999999--| (x2)
G#|-55555555-77777777-9999999999999999--|
C#|-55555555-77777777-9999999999999999--|
 PM ........ ........ ................

D#|---------------------|
A#|---------------------|
F#|---------------------|
C#|-55555555-77777777---|
G#|-55555555-77777777---|
C#|-55555555-77777777---|



                                  Chorus

D#|---------------------------------------------------------------------------|
A#|---------------------------------------------------------------------------|
F#|-7777777777777777----------------------------------------------------------|
C#|-7777777777777777-7777777777777777-9999999999999999-5555555555555555-------|
G#|-5555555555555555-7777777777777777-9999999999999999-5555555555555555-------|
C#|------------------7777777777777777-9999999999999999-5555555555555555-------|

D#|--------------------------------------------------------------------------------------------|
A#|--------------------------------------------------------------------------------------------|
F#|-7777777777777777---------------------------------------------------------------------------|
C#|-7777777777777777--7777777777777777-9999999999999999-55555555-77777777-55555555-77777777----|
G#|-5555555555555555--7777777777777777-9999999999999999-55555555-77777777-55555555-77777777----|
C#|-------------------7777777777777777-9999999999999999-55555555-77777777-55555555-77777777----|

                           Verse 2

D#|------------------------------------------------------------|
A#|------------------------------------------------------------|
F#|--------7*--------------------------------------------------|
C#|------0-----------7--5\4------------------------------------| (x5)
G#|----9---------5-------------5---7----5---9h10p9-7h9---------|
C#|--9---------5---5---------7---7----7---7--------------------|


               Pre-chorus

D#|-------------------------------------|
A#|-------------------------------------|
F#|-------------------------------------|
C#|-55555555-77777777-9999999999999999--| (x2)
G#|-55555555-77777777-9999999999999999--|
C#|-55555555-77777777-9999999999999999--|
 PM ........ ........ ................

D#|---------------------|
A#|---------------------|
F#|---------------------|
C#|-55555555-77777777---|
G#|-55555555-77777777---|
C#|-55555555-77777777---|



                                  Chorus

D#|---------------------------------------------------------------------------|
A#|---------------------------------------------------------------------------|
F#|-7777777777777777----------------------------------------------------------|
C#|-7777777777777777-7777777777777777-9999999999999999-5555555555555555-------|
G#|-5555555555555555-7777777777777777-9999999999999999-5555555555555555-------|
C#|------------------7777777777777777-9999999999999999-5555555555555555-------|

D#|--------------------------------------------------------------------------------------------|
A#|--------------------------------------------------------------------------------------------|
F#|-7777777777777777---------------------------------------------------------------------------|
C#|-7777777777777777--7777777777777777-9999999999999999-55555555-77777777-55555555-77777777----|
G#|-5555555555555555--7777777777777777-9999999999999999-55555555-77777777-55555555-77777777----|
C#|-------------------7777777777777777-9999999999999999-55555555-77777777-55555555-77777777----|


(Piano Bridge)



                                   Solo

D#|------------------------------------------------------------|
A#|----12b-12p10-----------------------------------------------|
F#|--------------11/12-14---11h12p12-----------------12-14-11--|
C#|----------------------------------12/14-----12-14-----------|
G#|------------------------------------------------------------|
C#|------------------------------------------------------------|


D#|--------------------------12----10----9----------------------|
A#|-12b-12p10------------10----10----10------10-12-14-15-15b----|
F#|-----------11/12-14------------------------------------------|
C#|-------------------------------------------------------------|
G#|-------------------------------------------------------------|
C#|-------------------------------------------------------------|
                     PM   .     .     .




D#|--------------------|
A#|--------------------|
F#|--77777777777777----|
C#|--77777777777777----| (x2)
G#|--55555555555555----|
C#|--------------------|



                                  Chorus

D#|---------------------------------------------------------------------------|
A#|---------------------------------------------------------------------------|
F#|-7777777777777777----------------------------------------------------------|
C#|-7777777777777777-7777777777777777-9999999999999999-5555555555555555-------|
G#|-5555555555555555-7777777777777777-9999999999999999-5555555555555555-------|
C#|------------------7777777777777777-9999999999999999-5555555555555555-------|

D#|--------------------------------------------------------------------------------------------|
A#|--------------------------------------------------------------------------------------------|
F#|-7777777777777777---------------------------------------------------------------------------|
C#|-7777777777777777--7777777777777777-9999999999999999-55555555-77777777-55555555-77777777----|
G#|-5555555555555555--7777777777777777-9999999999999999-55555555-77777777-55555555-77777777----|
C#|-------------------7777777777777777-9999999999999999-55555555-77777777-55555555-77777777----|


D#|--------|
A#|--------|
F#|--7~----|
C#|--7~----|
G#|--5~----|
C#|--------|


************************************

| /   slide up
| \   slide down
| h   hammer-on
| p   pull-off
| ~   vibrato
| +   harmonic
| x   Mute note
| b   Bend
| pb  Pre-bend
| br  Bend release
| pbr Pre-bend release
| brb Bend release bend

************************************
Tap to rate this tab
 
# A B C D E F G H I J K L M N O P Q R S T U V W X Y Z