Song name
# A B C D E F G H I J K L M N O P Q R S T U V W X Y Z

Mayday Parade - When You See My Friends tab

CAPO 1 my thanks to whoever tabbed it before me for figuring out the capo
c1=c and c2=g but i like how it sounds my way
           c1                c2
e|---------0--------|--------0---------|
B|---------0--------|--------0---------|
G|---------0--------|--------0---------|
D|---------2--------|--------0---------|
A|---------3--------|--------2---------|
E|---------0--------|--------0---------|


e|-----------------|-----------------|-----------------|-----------------|
B|-----------------|-----------------|-----------------|-----------------|
G|-----------------|-----------------|-----------------|-----------------|
D|-----------------|--0--2-------0---|-----------------|-----------------|
A|-0-3----------3--|----------3------|--3-2h3p2--------|-----------------|
E|-----3--1-------3|-------3---------|-----------3-----|-----------------|

e|-----------------|-----------------|
B|-----------------|-----------------|
G|-----------------|-----------------|
D|-----------------|--0--2----3---0--|
A|-0-3----------3--|-----------------|
E|-----3--1-------3|-------3---------|

e|-----------------|-----------------|-----------------|-----------------|
B|-----------------|-----------------|-----------------|-----------------|
G|-----------------|-----------------|-----------------|-----------------|
D|-----------------|--0--2-------0---|-----------------|-----------------|
A|-0-3----------3--|----------3------|--3-2h3p2--------|-----------------|
E|-----3--1-------3|-------3---------|-----------3-----|-----------------|

e|-----------------|-----------------|-----------------|
B|-----------------|-----------------|-----------------|
G|-----------------|-----------------|-----------------|
D|-----------------|--0--2----3---0--|-----------------|
A|-0-3----------3--|-----------------|----3-2h3p2------|
E|-----3--1-------3|-------3---------|-----------------|

F         C  G(bar) and strum down strings 234 2 3(slide up one on the third string

C strum 43 then full strum  C2(5th string 2, 1,3,4,5,6, open)   Am         G

F         C G    

e|-----------------|-----------------|-----------------|-----------------|
B|-----------------|-----------------|-----------------|-----------------|
G|-----------------|-----------------|-----------------|-----------------|
D|-----------------|--0--2-------0---|-----------------|-----------------|
A|-0-3----------3--|----------3------|--3-2h3p2--------|-----------------|
E|-----3--1-------3|-------3---------|-----------3-----|-----------------|

e|-----------------|-----------------|
B|-----------------|-----------------|
G|-----------------|-----------------|
D|-----------------|--0--2----3---0--|
A|-0-3----------3--|-----------------|
E|-----3--1-------3|-------3---------|

e|-----------------|-----------------|-----------------|-----------------|
B|-----------------|-----------------|-----------------|-----------------|
G|-----------------|-----------------|-----------------|-----------------|
D|-----------------|--0--2-------0---|-----------------|-----------------|
A|-0-3----------3--|----------3------|--3-2h3p2--------|-----------------|
E|-----3--1-------3|-------3---------|-----------3-----|-----------------|

e|-----------------|-----------------|-----------------|
B|-----------------|-----------------|-----------------|
G|-----------------|-----------------|-----------------|
D|-----------------|--0--2----3---0--|-----------------|
A|-0-3----------3--|-----------------|----3-2h3p2------|
E|-----3--1-------3|-------3---------|-----------------|

F         C  G(bar) and strum down strings 234 2 3(slide up one on the third string

C strum 43 then full strum  C2(5th string 2, 1,3,4,5,6, open)   Am         G

F         C G   

BRIDGE

e|-----------------------|--------------------|
B|-----------------------|--------------------|
G|-----------------------|--5--5--------------|    x8
D|---7-7--5--3----3--3---|--5--5-----5--------|
A|---7-7--5--3----3--3---|--3--3-----5--------|
E|---5-5--3--1----1--1---|-----------3--------|

e|-----------------------|
B|-----------------------|
G|----------------5------|
D|---7-7--5--3----3------|
A|---7-7--5--3----3------|
E|---5-5--3--1-----------|

drop your pick and play the next part by hand

F         C  G(bar) and strum down strings 234 2 3(slide up one on the third string

C strum 43 then full strum  C2  Am         G

F         C G 

repeat three times and then play

F         C  G(bar) and strum down strings 234 2 3(slide up one on the third string

C


END


That extra guitar at the beginning and in the bridge is tabbed like this

e|-8---8--10/12/10-8|---8---8----------8/10--8|
B|---8---8----------|-8---8---8----8----------|
G|------------------|-----------10---9--------|
D|------------------|-------------------------|
A|------------------|-------------------------|
E|------------------|-------------------------|
Tap to rate this tab
# A B C D E F G H I J K L M N O P Q R S T U V W X Y Z