Song name
# A B C D E F G H I J K L M N O P Q R S T U V W X Y Z

Mayday Parade - Happy Endings Are Stories That Havent Ended Yet tab

This sounds right but if any can make any corrections please do so...
Tuning: C#

Intro/verse
D#|--------------------------------------------------------|
A#|---------------------10-------9-------7--------9--------|
F#|---9--------8--------9--------9-------9--------9--------|
C#|---9---x8---9---x8---x---x3---x--x5---x--x3----x--x5----|
G#|---7--------7--------7--------7-------7--------7--------|
C#|--------------------------------------------------------|

Pre-Breakdown

D#|--------------------|
A#|--------------------|
F#|---9-----8----------|
C#|---9-----9----------|
G#|---7-----7----------|
C#|--------------------|

Lead

D#|------------------------------------------------------------------------------------|
A#|------------6-8-6-8-9-/11--11-9-8-6----------6-8-9-8-8/6-4-3-------------------3-4--|
F#|---/8-6-8-----------------------------8----8--------------------5---5-5-3-5---------|
C#|------------------------------------------------------------------------------------|
G#|------------------------------------------------------------------------------------|
C#|------------------------------------------------------------------------------------|

D#|---------------------------------------|
A#|-------------3-4-3-4-/6--6-4-4--3---3--|
F#|---3-3-/5-3-5---------------------5----|
C#|---------------------------------------|
G#|---------------------------------------|
C#|---------------------------------------|
Guitar 2 behind the solo picks these chords
D#|---7-------7-------4-------2--------|
A#|---10------7-------5-------4--------|
F#|---9-------8-------6-------4--------|
C#|---7-------9-------4-------2--------|
G#|---7-------7-------4-------2--------|
C#|------------------------------------|

Then when it picks up there is a solo that I haven't figured out yet and there playing 
these chords


D#|--------------------------------|
A#|--------------------------------|
F#|--9------8------6------4--------|
C#|--9------9------6------4--------|
G#|--7------7------4------2--------|
C#|--------------------------------|

And that's it if there's anything I did wrong please correct me...enjoy
Tap to rate this tab
 
# A B C D E F G H I J K L M N O P Q R S T U V W X Y Z