Song name
# A B C D E F G H I J K L M N O P Q R S T U V W X Y Z

Mayday Parade - Happy Endings Are Sad Stories That Havent Ended Yet tab

This is the lead part, it's all i have figured out but if you can figure out the chords 
or correct this solo please do so. This is an awesome song and if someone can finish it 
please post it.
Tuning: standard

E|-----------------------------------------------------------------------------------------------|
B|------------6-8-6-8-9-/11---11-9-8-6-------------6-8-9-8-8-8/6-4-3---------------3-4-----------|
G|---/8-6-8-------------------------------8---8----------------------5---5-5-3-5-----3-3---/5-3-5|
D|-----------------------------------------------------------------------------------------------|
A|-----------------------------------------------------------------------------------------------|
E|-----------------------------------------------------------------------------------------------|

E|------------------------------|
B|-3-4-3-4-4/6-7---6-6-4-3------|
G|---------------------------5--|
D|------------------------------|
A|------------------------------|
E|------------------------------|
Tap to rate this tab
 
# A B C D E F G H I J K L M N O P Q R S T U V W X Y Z