Song name
# A B C D E F G H I J K L M N O P Q R S T U V W X Y Z

Mayday Parade - Without The Bitter The Sweet Isnt As Sweet tab

-------------------------------------------------------------------------------
        Without the Bitter, The Sweet Isn't as Sweet - Mayday Parade
-------------------------------------------------------------------------------
Tabbed by: kaylakay93

Tuning: Standard

Intro:
e|---------------------------------------------------------------------------|
B|---------------------------------------------------------------------------|
G|--4\6--4~-6/8--6--4--6~-----4--4~----8-6-4-6-4-----------------------------|
D|------------------------4h6-------6~-----------6~--------------------------|
A|---------------------------------------------------------------------------|
E|---------------------------------------------------------------------------|

Verse:
e|---------------------------------------------------------------------------|
B|------4----------2---------------------------------------------------------|
G|-------4----------4-----1-------1------------------------------------------|
D|--------------4-------2--2----2--2-----------------------------------------|
A|---6---------2-------------------------------------------------------------|
E|--4------------------0-------0---------------------------------------------|

e|---------------------------------------------------------------------------|
B|------4----------2---------------------------------------------------------|
G|-------4----------4-----1-------1------------------------------------------|
D|--------------4-------2--2----2--2-----------------------------------------|
A|---6---------2-------------------------------------------------------------|
E|--4------------------0-------0---------------------------------------------|

e|---------------------------------------------------------------------------|
B|------4----------2---------------------------------------------------------|
G|-------4----------4-----1-------1------------------------------------------|
D|--------------4-------2--2----2--2-----------------------------------------|
A|---6---------2-------------------------------------------------------------|
E|--4------------------0-------0---------------------------------------------|

e|---------------------------------------------------------------------------|
B|-----4----------2---------2----------2-------------------------------------|
G|------4----------4----------3----------3-----------------------------------|
D|-------------4---------4---------4-----------------------------------------|
A|---6--------2--------------------------------------------------------------|
E|--4-------------------2---------2------------------------------------------|  

Pre-chorus:
e|---------------------------------------------------------------------------|
B|-----0-------0--------4--------2-------------------------------------------|
G|-------1-------1-------4---------3-----------------------------------------|
D|---2-------2----------------4----------------------------------------------|
A|--------------------6------------------------------------------------------|
E|--0-------0--------4-------2-----------------------------------------------|

e|---------------------------------------------------------------------------|
B|-----0-------0--------4--------2-------------------------------------------|
G|-------1-------1-------4---------3-----------------------------------------|
D|---2-------2----------------4----------------------------------------------|
A|--------------------6------------------------------------------------------|
E|--0-------0--------4-------2-----------------------------------------------|

e|---------------------------------------------------------------------------|
B|-----0-------0--------4--------2-------------------------------------------|
G|-------1-------1-------4---------3-----------------------------------------|
D|---2-------2----------------4----------------------------------------------|
A|--------------------6------------------------------------------------------|
E|--0-------0--------4-------2-----------------------------------------------|

e|---------------------------------------------------------------------------|
B|-----0-------0--------2----------------------------------------------------|
G|-------1-------1--------3--------------------------------------------------|
D|---2-------2---------------------------------------------------------------|
A|--------------------4------------------------------------------------------|
E|--0-------0--------2-------------------------------------------------------|

Chorus:
e|---------------------------------------------------------------------------|
B|------4----------2---------------------------------------------------------|
G|-------4----------4-----1-------1------------------------------------------|
D|--------------4-------2--2----2--2-----------------------------------------|
A|---6---------2-------------------------------------------------------------|
E|--4------------------0-------0---------------------------------------------|

e|---------------------------------------------------------------------------|
B|------4----------2---------------------------------------------------------|
G|-------4----------4-----1-------1------------------------------------------|
D|--------------4-------2--2----2--2-----------------------------------------|
A|---6---------2-------------------------------------------------------------|
E|--4------------------0-------0---------------------------------------------|

e|---------------------------------------------------------------------------|
B|------4----------2---------------------------------------------------------|
G|-------4----------4-----1-------1------------------------------------------|
D|--------------4-------2--2----2--2-----------------------------------------|
A|---6---------2-------------------------------------------------------------|
E|--4------------------0-------0---------------------------------------------|

e|---------------------------------------------------------------------------|
B|-----4----------2---------2----------2-------------------------------------|
G|------4----------4----------3----------3-----------------------------------|
D|-------------4---------4---------4-----------------------------------------|
A|---6--------2--------------------------------------------------------------|
E|--4-------------------2---------2------------------------------------------|  

(1:32)
e|---------------------------------------------------------------------------|
B|-----0-------0--------4--------2-------------------------------------------|
G|-------1-------1-------4---------3-----------------------------------------|
D|---2-------2----------------4----------------------------------------------|
A|--------------------6------------------------------------------------------|
E|--0-------0--------4-------2-----------------------------------------------|


e|---------------------------------------------------------------------------|
B|-----0-------0--------4--------2-------------------------------------------|
G|-------1-------1-------4---------3-----------------------------------------|
D|---2-------2----------------4----------------------------------------------|
A|--------------------6------------------------------------------------------|
E|--0-------0--------4-------2-----------------------------------------------|

e|---------------------------------------------------------------------------|
B|-----0-------0--------4--------2-------------------------------------------|
G|-------1-------1-------4---------3-----------------------------------------|
D|---2-------2----------------4----------------------------------------------|
A|--------------------6------------------------------------------------------|
E|--0-------0--------4-------2-----------------------------------------------|

e|---------------------------------------------------------------------------|
B|-----0-------0---------2---------------------------------------------------|
G|-------1-------1---------3-------------------------------------------------|
D|---2-------2---------4-----------------------------------------------------|
A|---------------------------------------------------------------------------|
E|--0-------0--------2-------------------------------------------------------|

Bridge:
e|----------------------------------------------------------------------------|
B|----------------------------------------------------------------------------|
G|--4444--4444---------11111111-----------------------------------------------|
D|--4444--4444--8888---22222222-----------------------------------------------|
A|--2222--2222--8888---22222222-----------------------------------------------|
E|--------------4444----------------------------------------------------------|

Chorus: (listen to song for strumming pattern)
e|----------------------------------------------------------------------------|
B|----------------------------------------------------------------------------|
G|--4-------1---------1---------------1---------------------------------------|
D|--4--8----2-(x2)----2---8---4-(x3)--2--4------------------------------------|
A|--2--8----2---------2---8---4-------2--4------------------------------------|
E|-----4------------------4---2----------2------------------------------------|

Ending:
e|----------------------------------------------------------------------------|
B|----------------------------------------------------------------------------|
G|--4444--4444---------1111---------------------------------------------------|
D|--4444--4444--8888---2222---------------------------------------------------|
A|--2222--2222--8888---2222---------------------------------------------------|
E|--------------4444----------------------------------------------------------|


************************************

| \   slide down
| h   hammer-on
| ~   vibrato

************************************
Tap to rate this tab
# A B C D E F G H I J K L M N O P Q R S T U V W X Y Z